  0
SECTION
  2
HEADER
  9
$ACADVER
  1
AC1009
  9
$INSBASE
 10
0
 20
0
 30
0
  9
$EXTMIN
 10
0
 20
0
  9
$EXTMAX
 10
16800
 20
11880
  9
$LIMMIN
 10
0
 20
0
  9
$LIMMAX
 10
16800
 20
11880
  9
$LTSCALE
 40
40
  0
ENDSEC
  0
SECTION
  2
TABLES
  0
TABLE
  2
LTYPE
 70
     9
  0
LTYPE
  2
CONTINUOUS
 70
    64
  3
実線
 72
    65
 73
     0
 40
0.0
  0
LTYPE
  2
DASHED1
 70
    64
  3
--  --  --  --  --  --  --  --  
 72
    65
 73
     2
 40
2.5
 49
1.25
 49
-1.25
  0
LTYPE
  2
DASHED2
 70
    64
  3
----    ----    ----    ----    
 72
    65
 73
     2
 40
5.0
 49
2.5
 49
-2.5
  0
LTYPE
  2
DASHED3
 70
    64
  3
------  ------  ------  ------  
 72
    65
 73
     2
 40
5.0
 49
3.75
 49
-1.25
  0
LTYPE
  2
CENTER1
 70
    64
  3
----- - ----- - ----- - ----- - 
 72
    65
 73
     4
 40
10.0
 49
6.25
 49
-1.25
 49
1.25
 49
-1.25
  0
LTYPE
  2
CENTER2
 70
    64
  3
----------  --  ----------  --  
 72
    65
 73
     4
 40
20.0
 49
12.5
 49
-2.5
 49
2.5
 49
-2.5
  0
LTYPE
  2
PHANTOM1
 70
    64
  3
--- - - --- - - --- - - --- - - 
 72
    65
 73
     6
 40
10.0
 49
3.25
 49
-1.25
 49
1.25
 49
-1.25
 49
1.25
 49
-1.25
  0
LTYPE
  2
PHANTOM2
 70
    64
  3
--------  -  -  --------  -  -  
 72
    65
 73
     6
 40
20.0
 49
10.0
 49
-2.5
 49
1.25
 49
-2.5
 49
1.25
 49
-2.5
  0
LTYPE
  2
DOT
 70
    64
  3
-   -   -   -   -   -   -   -   
 72
    65
 73
     2
 40
2.5
 49
0.625
 49
-1.875
  0
LTYPE
  2
DUMMY
 70
    64
  3
ダミー
 72
    65
 73
     0
 40
0.0
  0
LTYPE
  2
RAND1
 70
    64
  3
ランダム線1
 72
    65
 73
     4
 40
10.0
 49
1.0
 49
-2.0
 49
3.0
 49
-4.0
  0
LTYPE
  2
RAND2
 70
    64
  3
ランダム線2
 72
    65
 73
     4
 40
14.0
 49
2.0
 49
-3.0
 49
4.0
 49
-5.0
  0
LTYPE
  2
RAND3
 70
    64
  3
ランダム線3
 72
    65
 73
     4
 40
18.0
 49
3.0
 49
-4.0
 49
5.0
 49
-6.0
  0
LTYPE
  2
RAND4
 70
    64
  3
ランダム線4
 72
    65
 73
     4
 40
22.0
 49
4.0
 49
-5.0
 49
6.0
 49
-7.0
  0
LTYPE
  2
RAND5
 70
    64
  3
ランダム線5
 72
    65
 73
     4
 40
26.0
 49
5.0
 49
-6.0
 49
7.0
 49
-8.0
  0
LTYPE
  2
LONG1
 70
    64
  3
----------  --  ----------  --  
 72
    65
 73
     4
 40
40.0
 49
32.5
 49
-2.5
 49
2.5
 49
-2.5
  0
LTYPE
  2
LONG2
 70
    64
  3
--------  -  -  --------  -  -  
 72
    65
 73
     6
 40
40.0
 49
30.0
 49
-2.5
 49
1.25
 49
-2.5
 49
1.25
 49
-2.5
  0
LTYPE
  2
LONG3
 70
    64
  3
+++++++++++++++..+++++++++++++++
 72
    65
 73
     2
 40
40.0
 49
37.5
 49
-2.5
  0
LTYPE
  2
LONG4
 70
    64
  3
+++++++++++++++..+++++++++++++++
 72
    65
 73
     2
 40
80.0
 49
75.0
 49
-5.0
  0
LTYPE
  2
LONG5
 70
    64
  3
----------  --  ----------  --  
 72
    65
 73
     4
 40
60.0
 49
37.5
 49
-7.5
 49
7.5
 49
-7.5
  0
LTYPE
  2
dashed
 70
   64
  3
-------   -------------   ------
 72
   65
 73
    2
 40
7.5
 49
6
 49
-1.5
  0
LTYPE
  2
dashed_spaced
 70
   64
  3
----        --------        ----
 72
   65
 73
    2
 40
12
 49
6
 49
-6
  0
LTYPE
  2
long_dashed_dotted
 70
   64
  3
------------- --- --------------
 72
   65
 73
    4
 40
15.25
 49
12
 49
-1.5
 49
0.25
 49
-1.5
  0
LTYPE
  2
long_dashed_double-dotted
 70
   64
  3
----------- --- --- ------------
 72
   65
 73
    6
 40
17
 49
12
 49
-1.5
 49
0.25
 49
-1.5
 49
0.25
 49
-1.5
  0
LTYPE
  2
long_dashed_triplicate-dotted
 70
   64
  3
--------- --- --- --- ----------
 72
   65
 73
    8
 40
18.75
 49
12
 49
-1.5
 49
0.25
 49
-1.5
 49
0.25
 49
-1.5
 49
0.25
 49
-1.5
  0
LTYPE
  2
dotted
 70
   64
  3
   -       -       -       -    
 72
   65
 73
    2
 40
1.75
 49
0.25
 49
-1.5
  0
LTYPE
  2
chain
 70
   64
  3
-------------- -- --------------
 72
   65
 73
    4
 40
18.5
 49
12
 49
-1.5
 49
3.5
 49
-1.5
  0
LTYPE
  2
chain_double_dash
 70
   64
  3
------------ -- -- -------------
 72
   65
 73
    6
 40
23.5
 49
12
 49
-1.5
 49
3.5
 49
-1.5
 49
3.5
 49
-1.5
  0
LTYPE
  2
dashed_dotted
 70
   64
  3
-----------     -     ----------
 72
   65
 73
    4
 40
9.25
 49
6
 49
-1.5
 49
0.25
 49
-1.5
  0
LTYPE
  2
double-dashed_dotted
 70
   64
  3
------   -----------   -   -----
 72
   65
 73
    6
 40
16.75
 49
6
 49
-1.5
 49
6
 49
-1.5
 49
0.25
 49
-1.5
  0
LTYPE
  2
dashed_double-dotted
 70
   64
  3
---------    -    -    ---------
 72
   65
 73
    6
 40
11
 49
6
 49
-1.5
 49
0.25
 49
-1.5
 49
0.25
 49
-1.5
  0
LTYPE
  2
double-dashed_double-dotted
 70
   64
  3
-----   ---------   -   -   ----
 72
   65
 73
    8
 40
18.5
 49
6
 49
-1.5
 49
6
 49
-1.5
 49
0.25
 49
-1.5
 49
0.25
 49
-1.5
  0
LTYPE
  2
dashed_triplicate-dotted
 70
   64
  3
-------    -    -    -    ------
 72
   65
 73
    8
 40
12.75
 49
6
 49
-1.5
 49
0.25
 49
-1.5
 49
0.25
 49
-1.5
 49
0.25
 49
-1.5
  0
LTYPE
  2
double-dashed_triplicate-dotted
 70
   64
  3
-----  ---------  -  -  -  -----
 72
   65
 73
   10
 40
20.25
 49
6
 49
-1.5
 49
6
 49
-1.5
 49
0.25
 49
-1.5
 49
0.25
 49
-1.5
 49
0.25
 49
-1.5
  0
LTYPE
  2
undefined
 70
   64
  3
--------------------------------
 72
   65
 73
    0
 40
0
  0
LTYPE
  2
DASHED
 70
   64
  3
------     -----------     -----
 72
   65
 73
    2
 40
1.5
 49
1
 49
-0.5
  0
LTYPE
  2
CENTER
 70
   64
  3
---------          --  ---------
 72
   65
 73
    4
 40
4
 49
2.25
 49
-1.25
 49
0.25
 49
-0.25
  0
LTYPE
  2
_
 70
   64
  3
                                
 72
   65
 73
    0
 40
0
  0
LTYPE
  2
__20
 70
   64
  3
                                
 72
   65
 73
    0
 40
0
  0
LTYPE
  2
__21
 70
   64
  3
                                
 72
   65
 73
    0
 40
0
  0
LTYPE
  2
__22
 70
   64
  3
                                
 72
   65
 73
    0
 40
0
  0
LTYPE
  2
__23
 70
   64
  3
                                
 72
   65
 73
    0
 40
0
  0
LTYPE
  2
__24
 70
   64
  3
                                
 72
   65
 73
    0
 40
0
  0
LTYPE
  2
__25
 70
   64
  3
                                
 72
   65
 73
    0
 40
0
  0
LTYPE
  2
__26
 70
   64
  3
                                
 72
   65
 73
    0
 40
0
  0
LTYPE
  2
__27
 70
   64
  3
                                
 72
   65
 73
    0
 40
0
  0
LTYPE
  2
__28
 70
   64
  3
                                
 72
   65
 73
    0
 40
0
  0
LTYPE
  2
__29
 70
   64
  3
                                
 72
   65
 73
    0
 40
0
  0
LTYPE
  2
__30
 70
   64
  3
                                
 72
   65
 73
    0
 40
0
  0
LTYPE
  2
__31
 70
   64
  3
                                
 72
   65
 73
    0
 40
0
  0
LTYPE
  2
__32
 70
   64
  3
                                
 72
   65
 73
    0
 40
0
  0
ENDTAB
  0
TABLE
  2
STYLE
  5
3
100
AcDbSymbolTable
 70
     1
  0
STYLE
  5
10
100
AcDbSymbolTableRecord
100
AcDbTextStyleTableRecord
  2
STANDARD
 70
     0
 40
0.0
 41
1.0
 50
0.0
 71
     0
 42
0.2
  3
txt
  4
bigfont.shx
  0
STYLE
  5
26
100
AcDbSymbolTableRecord
100
AcDbTextStyleTableRecord
  2
TATEGAKI
 70
    68
 40
0.0
 41
1.0
 50
0.0
 71
     0
 42
1.0
  3
txt
  4
bigfont.shx
  0
ENDTAB
  0
TABLE
  2
LAYER
 70
    3
  0
LAYER
  2
_0-0_0
 70
   64
 62
    7
  6
CONTINUOUS
  0
LAYER
  2
_0-2_LAYER1
 70
   64
 62
    7
  6
CONTINUOUS
  0
LAYER
  2
ADD_LINE
 70
   64
 62
    7
  6
CONTINUOUS
  0
ENDTAB
  0
ENDSEC
  0
SECTION
  2
BLOCKS
  0
ENDSEC
  0
SECTION
  2
ENTITIES
  0
LINE
  8
_0-2_LAYER1
  6
CONTINUOUS
 62
    1
 10
6545.560778
 20
9840.1304700000001
 11
15445.560777999999
 21
9840.1304700000001
  0
LINE
  8
_0-2_LAYER1
  6
CONTINUOUS
 62
    1
 10
6545.560778
 20
9400.1304700000001
 11
15445.560777999999
 21
9400.1304700000001
  0
LINE
  8
_0-2_LAYER1
  6
CONTINUOUS
 62
    1
 10
6545.560778
 20
9055.1304700000001
 11
6545.560778
 21
10185.13047
  0
LINE
  8
_0-2_LAYER1
  6
CONTINUOUS
 62
    1
 10
15445.560777999999
 20
10185.13047
 11
15445.560777999999
 21
9055.1304700000001
  0
LINE
  8
_0-2_LAYER1
  6
CONTINUOUS
 62
    1
 10
6445.560778
 20
10185.13047
 11
6445.560778
 21
9055.1304700000001
  0
LINE
  8
_0-2_LAYER1
  6
CONTINUOUS
 62
    1
 10
6445.560778
 20
10185.13047
 11
7845.560778
 21
10185.13047
  0
LINE
  8
_0-2_LAYER1
  6
CONTINUOUS
 62
    1
 10
8145.560778
 20
10185.13047
 11
9845.5607779999991
 21
10185.13047
  0
LINE
  8
_0-2_LAYER1
  6
CONTINUOUS
 62
    1
 10
10145.560777999999
 20
10185.13047
 11
11845.560777999999
 21
10185.13047
  0
LINE
  8
_0-2_LAYER1
  6
CONTINUOUS
 62
    1
 10
12145.560777999999
 20
10185.13047
 11
13845.560777999999
 21
10185.13047
  0
LINE
  8
_0-2_LAYER1
  6
CONTINUOUS
 62
    1
 10
14145.560777999999
 20
10185.13047
 11
15445.560777999999
 21
10185.13047
  0
LINE
  8
_0-2_LAYER1
  6
CONTINUOUS
 62
    1
 10
6445.560778
 20
9055.1304700000001
 11
7845.560778
 21
9055.1304700000001
  0
LINE
  8
_0-2_LAYER1
  6
CONTINUOUS
 62
    1
 10
8145.560778
 20
9055.1304700000001
 11
9845.5607779999991
 21
9055.1304700000001
  0
LINE
  8
_0-2_LAYER1
  6
CONTINUOUS
 62
    1
 10
10145.560777999999
 20
9055.1304700000001
 11
11845.560777999999
 21
9055.1304700000001
  0
LINE
  8
_0-2_LAYER1
  6
CONTINUOUS
 62
    1
 10
12145.560777999999
 20
9055.1304700000001
 11
13845.560777999999
 21
9055.1304700000001
  0
LINE
  8
_0-2_LAYER1
  6
CONTINUOUS
 62
    1
 10
14145.560777999999
 20
9055.1304700000001
 11
15445.560777999999
 21
9055.1304700000001
  0
LINE
  8
_0-2_LAYER1
  6
CONTINUOUS
 62
    1
 10
7845.560778
 20
9985.1304700000001
 11
8145.560778
 21
9985.1304700000001
  0
LINE
  8
_0-2_LAYER1
  6
CONTINUOUS
 62
    1
 10
9845.5607779999991
 20
9985.1304700000001
 11
10145.560777999999
 21
9985.1304700000001
  0
LINE
  8
_0-2_LAYER1
  6
CONTINUOUS
 62
    1
 10
11845.560777999999
 20
9985.1304700000001
 11
12145.560777999999
 21
9985.1304700000001
  0
LINE
  8
_0-2_LAYER1
  6
CONTINUOUS
 62
    1
 10
13845.560777999999
 20
9985.1304700000001
 11
14145.560777999999
 21
9985.1304700000001
  0
LINE
  8
_0-2_LAYER1
  6
CONTINUOUS
 62
    1
 10
7845.560778
 20
9255.1304700000001
 11
8145.560778
 21
9255.1304700000001
  0
LINE
  8
_0-2_LAYER1
  6
CONTINUOUS
 62
    1
 10
9845.5607779999991
 20
9255.1304700000001
 11
10145.560777999999
 21
9255.1304700000001
  0
LINE
  8
_0-2_LAYER1
  6
CONTINUOUS
 62
    1
 10
11845.560777999999
 20
9255.1304700000001
 11
12145.560777999999
 21
9255.1304700000001
  0
LINE
  8
_0-2_LAYER1
  6
CONTINUOUS
 62
    1
 10
13845.560777999999
 20
9255.1304700000001
 11
14145.560777999999
 21
9255.1304700000001
  0
LINE
  8
_0-2_LAYER1
  6
CONTINUOUS
 62
    1
 10
7845.560778
 20
10185.13047
 11
7845.560778
 21
9985.1304700000001
  0
LINE
  8
_0-2_LAYER1
  6
CONTINUOUS
 62
    1
 10
7845.560778
 20
9255.1304700000001
 11
7845.560778
 21
9055.1304700000001
  0
LINE
  8
_0-2_LAYER1
  6
CONTINUOUS
 62
    1
 10
8145.560778
 20
9055.1304700000001
 11
8145.560778
 21
9255.1304700000001
  0
LINE
  8
_0-2_LAYER1
  6
CONTINUOUS
 62
    1
 10
8145.560778
 20
9985.1304700000001
 11
8145.560778
 21
10185.13047
  0
LINE
  8
_0-2_LAYER1
  6
CONTINUOUS
 62
    1
 10
9845.5607779999991
 20
10185.13047
 11
9845.5607779999991
 21
9985.1304700000001
  0
LINE
  8
_0-2_LAYER1
  6
CONTINUOUS
 62
    1
 10
9845.5607779999991
 20
9255.1304700000001
 11
9845.5607779999991
 21
9055.1304700000001
  0
LINE
  8
_0-2_LAYER1
  6
CONTINUOUS
 62
    1
 10
10145.560777999999
 20
9055.1304700000001
 11
10145.560777999999
 21
9255.1304700000001
  0
LINE
  8
_0-2_LAYER1
  6
CONTINUOUS
 62
    1
 10
10145.560777999999
 20
9985.1304700000001
 11
10145.560777999999
 21
10185.13047
  0
LINE
  8
_0-2_LAYER1
  6
CONTINUOUS
 62
    1
 10
11845.560777999999
 20
10185.13047
 11
11845.560777999999
 21
9985.1304700000001
  0
LINE
  8
_0-2_LAYER1
  6
CONTINUOUS
 62
    1
 10
11845.560777999999
 20
9255.1304700000001
 11
11845.560777999999
 21
9055.1304700000001
  0
LINE
  8
_0-2_LAYER1
  6
CONTINUOUS
 62
    1
 10
12145.560777999999
 20
9055.1304700000001
 11
12145.560777999999
 21
9255.1304700000001
  0
LINE
  8
_0-2_LAYER1
  6
CONTINUOUS
 62
    1
 10
12145.560777999999
 20
9985.1304700000001
 11
12145.560777999999
 21
10185.13047
  0
LINE
  8
_0-2_LAYER1
  6
CONTINUOUS
 62
    1
 10
13845.560777999999
 20
10185.13047
 11
13845.560777999999
 21
9985.1304700000001
  0
LINE
  8
_0-2_LAYER1
  6
CONTINUOUS
 62
    1
 10
13845.560777999999
 20
9255.1304700000001
 11
13845.560777999999
 21
9055.1304700000001
  0
LINE
  8
_0-2_LAYER1
  6
CONTINUOUS
 62
    1
 10
14145.560777999999
 20
9055.1304700000001
 11
14145.560777999999
 21
9255.1304700000001
  0
LINE
  8
_0-2_LAYER1
  6
CONTINUOUS
 62
    1
 10
14145.560777999999
 20
9985.1304700000001
 11
14145.560777999999
 21
10185.13047
  0
LINE
  8
_0-2_LAYER1
  6
CONTINUOUS
 62
    1
 10
6445.560778
 20
9710.1304700000001
 11
6545.560778
 21
9710.1304700000001
  0
LINE
  8
_0-2_LAYER1
  6
CONTINUOUS
 62
    1
 10
6545.560778
 20
9530.1304700000001
 11
6445.560778
 21
9530.1304700000001
  0
LINE
  8
_0-2_LAYER1
  6
CONTINUOUS
 62
    1
 10
6445.560778
 20
7631.1304700000001
 11
6445.560778
 21
6732.8037960000001
  0
LINE
  8
_0-2_LAYER1
  6
CONTINUOUS
 62
    1
 10
6545.560778
 20
7828.1304700000001
 11
6545.560778
 21
6736.8037960000001
  0
LINE
  8
_0-2_LAYER1
  6
CONTINUOUS
 62
    1
 10
6445.560778
 20
7631.1304700000001
 11
15445.560777999999
 21
7631.1304700000001
  0
LINE
  8
_0-2_LAYER1
  6
CONTINUOUS
 62
    1
 10
6545.560778
 20
6739.8037960000001
 11
7845.560778
 21
6739.8037960000001
  0
LINE
  8
_0-2_LAYER1
  6
CONTINUOUS
 62
    1
 10
8145.560778
 20
6739.8037960000001
 11
9845.5607779999991
 21
6739.8037960000001
  0
LINE
  8
_0-2_LAYER1
  6
CONTINUOUS
 62
    1
 10
6545.560778
 20
6736.8037960000001
 11
7845.560778
 21
6736.8037960000001
  0
LINE
  8
_0-2_LAYER1
  6
CONTINUOUS
 62
    1
 10
8145.560778
 20
6736.8037960000001
 11
9845.5607779999991
 21
6736.8037960000001
  0
LINE
  8
_0-2_LAYER1
  6
CONTINUOUS
 62
    1
 10
6445.560778
 20
6736.8037960000001
 11
7845.560778
 21
6736.8037960000001
  0
LINE
  8
_0-2_LAYER1
  6
CONTINUOUS
 62
    1
 10
8145.560778
 20
6736.8037960000001
 11
9845.5607779999991
 21
6736.8037960000001
  0
LINE
  8
_0-2_LAYER1
  6
CONTINUOUS
 62
    1
 10
10145.560777999999
 20
6736.8037960000001
 11
11845.560777999999
 21
6736.8037960000001
  0
LINE
  8
_0-2_LAYER1
  6
CONTINUOUS
 62
    1
 10
12145.560777999999
 20
6736.8037960000001
 11
13845.560777999999
 21
6736.8037960000001
  0
LINE
  8
_0-2_LAYER1
  6
CONTINUOUS
 62
    1
 10
14145.560777999999
 20
6736.8037960000001
 11
15445.560777999999
 21
6736.8037960000001
  0
LINE
  8
_0-2_LAYER1
  6
CONTINUOUS
 62
    1
 10
6445.560778
 20
6732.8037960000001
 11
7845.560778
 21
6732.8037960000001
  0
LINE
  8
_0-2_LAYER1
  6
CONTINUOUS
 62
    1
 10
8145.560778
 20
6732.8037960000001
 11
9845.5607779999991
 21
6732.8037960000001
  0
LINE
  8
_0-2_LAYER1
  6
CONTINUOUS
 62
    1
 10
10145.560777999999
 20
6732.8037960000001
 11
11845.560777999999
 21
6732.8037960000001
  0
LINE
  8
_0-2_LAYER1
  6
CONTINUOUS
 62
    1
 10
12145.560777999999
 20
6732.8037960000001
 11
13845.560777999999
 21
6732.8037960000001
  0
LINE
  8
_0-2_LAYER1
  6
CONTINUOUS
 62
    1
 10
14145.560777999999
 20
6732.8037960000001
 11
15445.560777999999
 21
6732.8037960000001
  0
LINE
  8
_0-2_LAYER1
  6
CONTINUOUS
 62
    1
 10
6545.560778
 20
6739.8037960000001
 11
7845.560778
 21
6739.8037960000001
  0
LINE
  8
_0-2_LAYER1
  6
CONTINUOUS
 62
    1
 10
8145.560778
 20
6739.8037960000001
 11
9845.5607779999991
 21
6739.8037960000001
  0
LINE
  8
_0-2_LAYER1
  6
CONTINUOUS
 62
    1
 10
10145.560777999999
 20
6739.8037960000001
 11
11845.560777999999
 21
6739.8037960000001
  0
LINE
  8
_0-2_LAYER1
  6
CONTINUOUS
 62
    1
 10
12145.560777999999
 20
6739.8037960000001
 11
13845.560777999999
 21
6739.8037960000001
  0
LINE
  8
_0-2_LAYER1
  6
CONTINUOUS
 62
    1
 10
14145.560777999999
 20
6739.8037960000001
 11
15445.560777999999
 21
6739.8037960000001
  0
LINE
  8
_0-2_LAYER1
  6
CONTINUOUS
 62
    1
 10
15445.560777999999
 20
7828.1304700000001
 11
15445.560777999999
 21
6732.8037960000001
  0
LINE
  8
_0-2_LAYER1
  6
CONTINUOUS
 62
    1
 10
7845.560778
 20
6852.8037960000001
 11
8145.560778
 21
6852.8037960000001
  0
LINE
  8
_0-2_LAYER1
  6
CONTINUOUS
 62
    1
 10
9845.5607779999991
 20
6852.8037960000001
 11
10145.560777999999
 21
6852.8037960000001
  0
LINE
  8
_0-2_LAYER1
  6
CONTINUOUS
 62
    1
 10
11845.560777999999
 20
6852.8037960000001
 11
12145.560777999999
 21
6852.8037960000001
  0
LINE
  8
_0-2_LAYER1
  6
CONTINUOUS
 62
    1
 10
13845.560777999999
 20
6852.8037960000001
 11
14145.560777999999
 21
6852.8037960000001
  0
LINE
  8
_0-2_LAYER1
  6
CONTINUOUS
 62
    1
 10
7845.560778
 20
6845.8037960000001
 11
8145.560778
 21
6845.8037960000001
  0
LINE
  8
_0-2_LAYER1
  6
CONTINUOUS
 62
    1
 10
9845.5607779999991
 20
6845.8037960000001
 11
10145.560777999999
 21
6845.8037960000001
  0
LINE
  8
_0-2_LAYER1
  6
CONTINUOUS
 62
    1
 10
11845.560777999999
 20
6845.8037960000001
 11
12145.560777999999
 21
6845.8037960000001
  0
LINE
  8
_0-2_LAYER1
  6
CONTINUOUS
 62
    1
 10
13845.560777999999
 20
6845.8037960000001
 11
14145.560777999999
 21
6845.8037960000001
  0
LINE
  8
_0-2_LAYER1
  6
CONTINUOUS
 62
    1
 10
7845.560778
 20
6852.8037960000001
 11
7845.560778
 21
6732.8037960000001
  0
LINE
  8
_0-2_LAYER1
  6
CONTINUOUS
 62
    1
 10
8145.560778
 20
6852.8037960000001
 11
8145.560778
 21
6732.8037960000001
  0
LINE
  8
_0-2_LAYER1
  6
CONTINUOUS
 62
    1
 10
9845.5607779999991
 20
6852.8037960000001
 11
9845.5607779999991
 21
6732.8037960000001
  0
LINE
  8
_0-2_LAYER1
  6
CONTINUOUS
 62
    1
 10
10145.560777999999
 20
6852.8037960000001
 11
10145.560777999999
 21
6732.8037960000001
  0
LINE
  8
_0-2_LAYER1
  6
CONTINUOUS
 62
    1
 10
11845.560777999999
 20
6852.8037960000001
 11
11845.560777999999
 21
6732.8037960000001
  0
LINE
  8
_0-2_LAYER1
  6
CONTINUOUS
 62
    1
 10
12145.560777999999
 20
6852.8037960000001
 11
12145.560777999999
 21
6732.8037960000001
  0
LINE
  8
_0-2_LAYER1
  6
CONTINUOUS
 62
    1
 10
13845.560777999999
 20
6852.8037960000001
 11
13845.560777999999
 21
6732.8037960000001
  0
CIRCLE
  8
_0-2_LAYER1
  6
CONTINUOUS
 62
    1
 10
6995.560778
 20
6795.8037960000001
 40
20
  0
CIRCLE
  8
_0-2_LAYER1
  6
CONTINUOUS
 62
    1
 10
8995.5607779999991
 20
6795.8037960000001
 40
20
  0
CIRCLE
  8
_0-2_LAYER1
  6
CONTINUOUS
 62
    1
 10
10995.560777999999
 20
6795.8037960000001
 40
20
  0
CIRCLE
  8
_0-2_LAYER1
  6
CONTINUOUS
 62
    1
 10
12995.560777999999
 20
6795.8037960000001
 40
20
  0
CIRCLE
  8
_0-2_LAYER1
  6
CONTINUOUS
 62
    1
 10
13995.560777999999
 20
6883.4037900000003
 40
20
  0
CIRCLE
  8
_0-2_LAYER1
  6
CONTINUOUS
 62
    1
 10
7995.560778
 20
6883.4037900000003
 40
20
  0
CIRCLE
  8
_0-2_LAYER1
  6
CONTINUOUS
 62
    1
 10
9995.5607779999991
 20
6883.4037900000003
 40
20
  0
CIRCLE
  8
_0-2_LAYER1
  6
CONTINUOUS
 62
    1
 10
11995.560777999999
 20
6883.4037900000003
 40
20
  0
LINE
  8
_0-2_LAYER1
  6
CONTINUOUS
 62
    1
 10
6545.560778
 20
7828.1304700000001
 11
15445.560777999999
 21
7828.1304700000001
  0
CIRCLE
  8
_0-2_LAYER1
  6
CONTINUOUS
 62
    1
 10
14995.560777999999
 20
6795.8037960000001
 40
20
  0
CIRCLE
  8
_0-2_LAYER1
  6
CONTINUOUS
 62
    1
 10
6995.560778
 20
7712.1304700000001
 40
20
  0
CIRCLE
  8
_0-2_LAYER1
  6
CONTINUOUS
 62
    1
 10
8995.5607779999991
 20
7712.1304700000001
 40
20
  0
CIRCLE
  8
_0-2_LAYER1
  6
CONTINUOUS
 62
    1
 10
10995.560777999999
 20
7712.1304700000001
 40
20
  0
CIRCLE
  8
_0-2_LAYER1
  6
CONTINUOUS
 62
    1
 10
12995.560777999999
 20
7712.1304700000001
 40
20
  0
CIRCLE
  8
_0-2_LAYER1
  6
CONTINUOUS
 62
    1
 10
14995.560777999999
 20
7712.1304700000001
 40
20
  0
LINE
  8
_0-2_LAYER1
  6
CONTINUOUS
 62
    1
 10
14145.560777999999
 20
6852.8037960000001
 11
14145.560777999999
 21
6736.8037960000001
  0
LINE
  8
_0-2_LAYER1
  6
CENTER
 62
    1
 10
7995.560778
 20
9255.1304700000001
 11
7995.560778
 21
8844.1304700000001
  0
LINE
  8
_0-2_LAYER1
  6
CENTER
 62
    1
 10
9995.5607779999991
 20
8844.1304700000001
 11
9995.5607779999991
 21
9255.1304700000001
  0
LINE
  8
_0-2_LAYER1
  6
CENTER
 62
    1
 10
11995.560777999999
 20
9255.1304700000001
 11
11995.560777999999
 21
8844.1304700000001
  0
LINE
  8
_0-2_LAYER1
  6
CENTER
 62
    1
 10
13995.560777999999
 20
8844.1304700000001
 11
13995.560777999999
 21
9255.1304700000001
  0
TEXT
  8
_0-2_LAYER1
 62
    7
 10
8045.560778
 20
8086.1304700000001
 40
140
 41
0.8
 50
0
  1
釘穴5-φ4
  0
TEXT
  8
_0-2_LAYER1
 62
    7
 10
9436.0607779999991
 20
7204.1304700000001
 40
140
 41
0.8
 50
0
  1
釘穴5-φ4
  0
LINE
  8
_0-2_LAYER1
  6
CONTINUOUS
 62
    1
 10
7036.5607780000009
 20
7840.1304700000001
 11
6981.5607780000009
 21
7701.1304700000001
  0
LINE
  8
_0-2_LAYER1
  6
CONTINUOUS
 62
    1
 10
6981.5607780000009
 20
7701.1304700000001
 11
8045.560778
 21
8086.1304700000001
  0
LINE
  8
_0-2_LAYER1
  6
CONTINUOUS
 62
    1
 10
8045.560778
 20
8086.1304700000001
 11
8518.0607779999991
 21
8086.1304700000001
  0
LINE
  8
_0-2_LAYER1
  6
CONTINUOUS
 62
    1
 10
10863.560777999999
 20
6763.8037960000001
 11
11011.560777999999
 21
6787.8037960000001
  0
LINE
  8
_0-2_LAYER1
  6
CONTINUOUS
 62
    1
 10
11011.560777999999
 20
6787.8037960000001
 11
9908.5607779999991
 21
7204.1304700000001
  0
LINE
  8
_0-2_LAYER1
  6
CONTINUOUS
 62
    1
 10
9908.5607779999991
 20
7204.1304700000001
 11
9436.0607779999991
 21
7204.1304700000001
  0
TEXT
  8
_0-2_LAYER1
 62
    7
 10
11502.560777999999
 20
8122.1304700000001
 40
140
 41
0.8
 50
0
  1
通気開口部10-50x20
  0
LINE
  8
_0-2_LAYER1
  6
CONTINUOUS
 62
    1
 10
10662.560777999999
 20
7185.0037840000005
 11
10654.560777999999
 21
7035.0037840000005
  0
LINE
  8
_0-2_LAYER1
  6
CONTINUOUS
 62
    1
 10
10654.560777999999
 20
7035.0037840000005
 11
11502.560777999999
 21
8122.1304700000001
  0
LINE
  8
_0-2_LAYER1
  6
CONTINUOUS
 62
    1
 10
11502.560777999999
 20
8122.1304700000001
 11
12447.560777999999
 21
8122.1304700000001
  0
LINE
  8
_0-2_LAYER1
  6
DASHED
 62
    1
 10
15345.560777999999
 20
7631.1304700000001
 11
15345.560777999999
 21
6732.8037960000001
  0
LINE
  8
_0-2_LAYER1
  6
CONTINUOUS
 62
    1
 10
10258.560777999999
 20
7618.1304700000001
 11
10211.560777999999
 21
7475.1304700000001
  0
LINE
  8
_0-2_LAYER1
  6
CONTINUOUS
 62
    1
 10
10211.560777999999
 20
7475.1304700000001
 11
11502.560777999999
 21
8122.1304700000001
  0
LINE
  8
_0-2_LAYER1
  6
CONTINUOUS
 62
    1
 10
6445.560778
 20
5254.1304700000001
 11
15445.560777999999
 21
5254.1304700000001
  0
LINE
  8
_0-2_LAYER1
  6
CONTINUOUS
 62
    1
 10
6445.560778
 20
5150.1304700000001
 11
15445.560777999999
 21
5150.1304700000001
  0
LINE
  8
_0-2_LAYER1
  6
CONTINUOUS
 62
    1
 10
6445.560778
 20
4768.1304700000001
 11
15445.560777999999
 21
4768.1304700000001
  0
LINE
  8
_0-2_LAYER1
  6
CONTINUOUS
 62
    1
 10
6445.560778
 20
4236.1304700000001
 11
15445.560777999999
 21
4236.1304700000001
  0
LINE
  8
_0-2_LAYER1
  6
CONTINUOUS
 62
    1
 10
6445.560778
 20
5254.1304700000001
 11
6445.560778
 21
4236.1304700000001
  0
LINE
  8
_0-2_LAYER1
  6
CONTINUOUS
 62
    1
 10
15445.560777999999
 20
4236.1304700000001
 11
15445.560777999999
 21
5254.1304700000001
  0
LINE
  8
_0-2_LAYER1
  6
CONTINUOUS
 62
    1
 10
7145.560778
 20
4859.1304700000001
 11
7145.560778
 21
5059.1304700000001
  0
LINE
  8
_0-2_LAYER1
  6
CONTINUOUS
 62
    1
 10
7145.560778
 20
5059.1304700000001
 11
6645.560778
 21
5059.1304700000001
  0
LINE
  8
_0-2_LAYER1
  6
CONTINUOUS
 62
    1
 10
6645.560778
 20
5059.1304700000001
 11
6645.560778
 21
4859.1304700000001
  0
LINE
  8
_0-2_LAYER1
  6
CONTINUOUS
 62
    1
 10
6645.560778
 20
4859.1304700000001
 11
7145.560778
 21
4859.1304700000001
  0
LINE
  8
_0-2_LAYER1
  6
CONTINUOUS
 62
    1
 10
7945.560778
 20
4859.1304700000001
 11
7945.560778
 21
5059.1304700000001
  0
LINE
  8
_0-2_LAYER1
  6
CONTINUOUS
 62
    1
 10
7945.560778
 20
5059.1304700000001
 11
7445.560778
 21
5059.1304700000001
  0
LINE
  8
_0-2_LAYER1
  6
CONTINUOUS
 62
    1
 10
7445.560778
 20
5059.1304700000001
 11
7445.560778
 21
4859.1304700000001
  0
LINE
  8
_0-2_LAYER1
  6
CONTINUOUS
 62
    1
 10
7445.560778
 20
4859.1304700000001
 11
7945.560778
 21
4859.1304700000001
  0
LINE
  8
_0-2_LAYER1
  6
CONTINUOUS
 62
    1
 10
8745.5607779999991
 20
4859.1304700000001
 11
8745.5607779999991
 21
5059.1304700000001
  0
LINE
  8
_0-2_LAYER1
  6
CONTINUOUS
 62
    1
 10
8745.5607779999991
 20
5059.1304700000001
 11
8245.5607779999991
 21
5059.1304700000001
  0
LINE
  8
_0-2_LAYER1
  6
CONTINUOUS
 62
    1
 10
8245.5607779999991
 20
5059.1304700000001
 11
8245.5607779999991
 21
4859.1304700000001
  0
LINE
  8
_0-2_LAYER1
  6
CONTINUOUS
 62
    1
 10
8245.5607779999991
 20
4859.1304700000001
 11
8745.5607779999991
 21
4859.1304700000001
  0
LINE
  8
_0-2_LAYER1
  6
CONTINUOUS
 62
    1
 10
9545.5607779999991
 20
4859.1304700000001
 11
9545.5607779999991
 21
5059.1304700000001
  0
LINE
  8
_0-2_LAYER1
  6
CONTINUOUS
 62
    1
 10
9545.5607779999991
 20
5059.1304700000001
 11
9045.5607779999991
 21
5059.1304700000001
  0
LINE
  8
_0-2_LAYER1
  6
CONTINUOUS
 62
    1
 10
9045.5607779999991
 20
5059.1304700000001
 11
9045.5607779999991
 21
4859.1304700000001
  0
LINE
  8
_0-2_LAYER1
  6
CONTINUOUS
 62
    1
 10
9045.5607779999991
 20
4859.1304700000001
 11
9545.5607779999991
 21
4859.1304700000001
  0
LINE
  8
_0-2_LAYER1
  6
CONTINUOUS
 62
    1
 10
10345.560777999999
 20
4859.1304700000001
 11
10345.560777999999
 21
5059.1304700000001
  0
LINE
  8
_0-2_LAYER1
  6
CONTINUOUS
 62
    1
 10
10345.560777999999
 20
5059.1304700000001
 11
9845.5607779999991
 21
5059.1304700000001
  0
LINE
  8
_0-2_LAYER1
  6
CONTINUOUS
 62
    1
 10
9845.5607779999991
 20
5059.1304700000001
 11
9845.5607779999991
 21
4859.1304700000001
  0
LINE
  8
_0-2_LAYER1
  6
CONTINUOUS
 62
    1
 10
9845.5607779999991
 20
4859.1304700000001
 11
10345.560777999999
 21
4859.1304700000001
  0
LINE
  8
_0-2_LAYER1
  6
CONTINUOUS
 62
    1
 10
11145.560777999999
 20
4859.1304700000001
 11
11145.560777999999
 21
5059.1304700000001
  0
LINE
  8
_0-2_LAYER1
  6
CONTINUOUS
 62
    1
 10
11145.560777999999
 20
5059.1304700000001
 11
10645.560777999999
 21
5059.1304700000001
  0
LINE
  8
_0-2_LAYER1
  6
CONTINUOUS
 62
    1
 10
10645.560777999999
 20
5059.1304700000001
 11
10645.560777999999
 21
4859.1304700000001
  0
LINE
  8
_0-2_LAYER1
  6
CONTINUOUS
 62
    1
 10
10645.560777999999
 20
4859.1304700000001
 11
11145.560777999999
 21
4859.1304700000001
  0
LINE
  8
_0-2_LAYER1
  6
CONTINUOUS
 62
    1
 10
11945.560777999999
 20
4859.1304700000001
 11
11945.560777999999
 21
5059.1304700000001
  0
LINE
  8
_0-2_LAYER1
  6
CONTINUOUS
 62
    1
 10
11945.560777999999
 20
5059.1304700000001
 11
11445.560777999999
 21
5059.1304700000001
  0
LINE
  8
_0-2_LAYER1
  6
CONTINUOUS
 62
    1
 10
11445.560777999999
 20
5059.1304700000001
 11
11445.560777999999
 21
4859.1304700000001
  0
LINE
  8
_0-2_LAYER1
  6
CONTINUOUS
 62
    1
 10
11445.560777999999
 20
4859.1304700000001
 11
11945.560777999999
 21
4859.1304700000001
  0
LINE
  8
_0-2_LAYER1
  6
CONTINUOUS
 62
    1
 10
12745.560777999999
 20
4859.1304700000001
 11
12745.560777999999
 21
5059.1304700000001
  0
LINE
  8
_0-2_LAYER1
  6
CONTINUOUS
 62
    1
 10
12745.560777999999
 20
5059.1304700000001
 11
12245.560777999999
 21
5059.1304700000001
  0
LINE
  8
_0-2_LAYER1
  6
CONTINUOUS
 62
    1
 10
12245.560777999999
 20
5059.1304700000001
 11
12245.560777999999
 21
4859.1304700000001
  0
LINE
  8
_0-2_LAYER1
  6
CONTINUOUS
 62
    1
 10
12245.560777999999
 20
4859.1304700000001
 11
12745.560777999999
 21
4859.1304700000001
  0
LINE
  8
_0-2_LAYER1
  6
CONTINUOUS
 62
    1
 10
13545.560777999999
 20
4859.1304700000001
 11
13545.560777999999
 21
5059.1304700000001
  0
LINE
  8
_0-2_LAYER1
  6
CONTINUOUS
 62
    1
 10
13545.560777999999
 20
5059.1304700000001
 11
13045.560777999999
 21
5059.1304700000001
  0
LINE
  8
_0-2_LAYER1
  6
CONTINUOUS
 62
    1
 10
13045.560777999999
 20
5059.1304700000001
 11
13045.560777999999
 21
4859.1304700000001
  0
LINE
  8
_0-2_LAYER1
  6
CONTINUOUS
 62
    1
 10
13045.560777999999
 20
4859.1304700000001
 11
13545.560777999999
 21
4859.1304700000001
  0
LINE
  8
_0-2_LAYER1
  6
CONTINUOUS
 62
    1
 10
14345.560777999999
 20
4859.1304700000001
 11
14345.560777999999
 21
5059.1304700000001
  0
LINE
  8
_0-2_LAYER1
  6
CONTINUOUS
 62
    1
 10
14345.560777999999
 20
5059.1304700000001
 11
13845.560777999999
 21
5059.1304700000001
  0
LINE
  8
_0-2_LAYER1
  6
CONTINUOUS
 62
    1
 10
13845.560777999999
 20
5059.1304700000001
 11
13845.560777999999
 21
4859.1304700000001
  0
LINE
  8
_0-2_LAYER1
  6
CONTINUOUS
 62
    1
 10
13845.560777999999
 20
4859.1304700000001
 11
14345.560777999999
 21
4859.1304700000001
  0
LINE
  8
_0-2_LAYER1
  6
CONTINUOUS
 62
    1
 10
15145.560777999999
 20
4859.1304700000001
 11
15145.560777999999
 21
5059.1304700000001
  0
LINE
  8
_0-2_LAYER1
  6
CONTINUOUS
 62
    1
 10
15145.560777999999
 20
5059.1304700000001
 11
14645.560777999999
 21
5059.1304700000001
  0
LINE
  8
_0-2_LAYER1
  6
CONTINUOUS
 62
    1
 10
14645.560777999999
 20
5059.1304700000001
 11
14645.560777999999
 21
4859.1304700000001
  0
LINE
  8
_0-2_LAYER1
  6
CONTINUOUS
 62
    1
 10
14645.560777999999
 20
4859.1304700000001
 11
15145.560777999999
 21
4859.1304700000001
  0
LINE
  8
_0-2_LAYER1
  6
CONTINUOUS
 62
    1
 10
6445.560778
 20
4386.1304700000001
 11
15445.560777999999
 21
4386.1304700000001
  0
LINE
  8
_0-2_LAYER1
  6
CONTINUOUS
 62
    1
 10
6467.5607779999991
 20
3831.1304700000001
 11
6467.5607779999991
 21
3671.1304700000001
  0
LINE
  8
_0-2_LAYER1
  6
CONTINUOUS
 62
    1
 10
15467.560777999999
 20
3671.1304700000001
 11
15467.560777999999
 21
3831.1304700000001
  0
LINE
  8
_0-2_LAYER1
  6
CONTINUOUS
 62
    1
 10
15467.560777999999
 20
3831.1304700000001
 11
6467.5607779999991
 21
3831.1304700000001
  0
LINE
  8
_0-2_LAYER1
  6
CONTINUOUS
 62
    1
 10
15467.560777999999
 20
3671.1304700000001
 11
6467.5607779999991
 21
3671.1304700000001
  0
LINE
  8
_0-2_LAYER1
  6
CONTINUOUS
 62
    1
 10
15467.560777999999
 20
3673.1304700000001
 11
7287.5607779999991
 21
3673.1304700000001
  0
LINE
  8
_0-2_LAYER1
  6
CONTINUOUS
 62
    1
 10
7287.5607779999991
 20
3673.1304700000001
 11
6467.5607779999991
 21
3673.1304700000001
  0
LINE
  8
_0-2_LAYER1
  6
CONTINUOUS
 62
    1
 10
6467.5607779999991
 20
3675.1304700000001
 11
6647.5607779999991
 21
3675.1304700000001
  0
LINE
  8
_0-2_LAYER1
  6
CONTINUOUS
 62
    1
 10
6787.5607779999991
 20
3675.1304700000001
 11
7147.5607779999991
 21
3675.1304700000001
  0
LINE
  8
_0-2_LAYER1
  6
CONTINUOUS
 62
    1
 10
6467.5607779999991
 20
3673.1304700000001
 11
6647.5607779999991
 21
3673.1304700000001
  0
ARC
  8
_0-2_LAYER1
  6
CONTINUOUS
 62
    1
 10
6647.5607779999991
 20
3685.1304700000001
 40
10
 50
270
 51
0
  0
ARC
  8
_0-2_LAYER1
  6
CONTINUOUS
 62
    1
 10
6647.5607779999991
 20
3685.1304700000001
 40
12
 50
270
 51
0
  0
ARC
  8
_0-2_LAYER1
  6
CONTINUOUS
 62
    1
 10
6787.5607779999991
 20
3685.1304700000001
 40
10
 50
180
 51
270
  0
LINE
  8
_0-2_LAYER1
  6
CONTINUOUS
 62
    1
 10
6818.560778
 20
3673.1304700000001
 11
6787.5607779999991
 21
3673.1304700000001
  0
ARC
  8
_0-2_LAYER1
  6
CONTINUOUS
 62
    1
 10
6787.5607779999991
 20
3685.1304700000001
 40
12
 50
180
 51
270
  0
LINE
  8
_0-2_LAYER1
  6
CONTINUOUS
 62
    1
 10
7074.560778
 20
3673.1304700000001
 11
7147.5607779999991
 21
3673.1304700000001
  0
ARC
  8
_0-2_LAYER1
  6
CONTINUOUS
 62
    1
 10
7147.5607779999991
 20
3685.1304700000001
 40
10
 50
270
 51
0
  0
ARC
  8
_0-2_LAYER1
  6
CONTINUOUS
 62
    1
 10
7147.5607779999991
 20
3685.1304700000001
 40
12
 50
270
 51
0
  0
LINE
  8
_0-2_LAYER1
  6
CONTINUOUS
 62
    1
 10
7647.5607779999991
 20
3675.1304700000001
 11
7287.5607779999991
 21
3675.1304700000001
  0
LINE
  8
_0-2_LAYER1
  6
CONTINUOUS
 62
    1
 10
7775.560778
 20
3673.1304700000001
 11
7287.5607779999991
 21
3673.1304700000001
  0
ARC
  8
_0-2_LAYER1
  6
CONTINUOUS
 62
    1
 10
7287.5607779999991
 20
3685.1304700000001
 40
10
 50
180
 51
270
  0
ARC
  8
_0-2_LAYER1
  6
CONTINUOUS
 62
    1
 10
7287.5607779999991
 20
3685.1304700000001
 40
12
 50
180
 51
270
  0
ARC
  8
_0-2_LAYER1
  6
CONTINUOUS
 62
    1
 10
7647.5607779999991
 20
3685.1304700000001
 40
12
 50
270
 51
0
  0
ARC
  8
_0-2_LAYER1
  6
CONTINUOUS
 62
    1
 10
7647.5607779999991
 20
3685.1304700000001
 40
10
 50
270
 51
0
  0
ARC
  8
_0-2_LAYER1
  6
CONTINUOUS
 62
    1
 10
7787.5607779999991
 20
3685.1304700000001
 40
12
 50
180
 51
270
  0
ARC
  8
_0-2_LAYER1
  6
CONTINUOUS
 62
    1
 10
7787.5607779999991
 20
3685.1304700000001
 40
10
 50
180
 51
270
  0
LINE
  8
_0-2_LAYER1
  6
CONTINUOUS
 62
    1
 10
8147.5607779999991
 20
3675.1304700000001
 11
7787.5607779999991
 21
3675.1304700000001
  0
ARC
  8
_0-2_LAYER1
  6
CONTINUOUS
 62
    1
 10
8147.5607779999991
 20
3685.1304700000001
 40
12
 50
270
 51
0
  0
ARC
  8
_0-2_LAYER1
  6
CONTINUOUS
 62
    1
 10
8147.5607779999991
 20
3685.1304700000001
 40
10
 50
270
 51
0
  0
ARC
  8
_0-2_LAYER1
  6
CONTINUOUS
 62
    1
 10
8287.5607779999991
 20
3685.1304700000001
 40
12
 50
180
 51
270
  0
ARC
  8
_0-2_LAYER1
  6
CONTINUOUS
 62
    1
 10
8287.5607779999991
 20
3685.1304700000001
 40
10
 50
180
 51
270
  0
LINE
  8
_0-2_LAYER1
  6
CONTINUOUS
 62
    1
 10
8647.5607779999991
 20
3675.1304700000001
 11
8287.5607779999991
 21
3675.1304700000001
  0
ARC
  8
_0-2_LAYER1
  6
CONTINUOUS
 62
    1
 10
8647.5607779999991
 20
3685.1304700000001
 40
12
 50
270
 51
0
  0
ARC
  8
_0-2_LAYER1
  6
CONTINUOUS
 62
    1
 10
8647.5607779999991
 20
3685.1304700000001
 40
10
 50
270
 51
0
  0
ARC
  8
_0-2_LAYER1
  6
CONTINUOUS
 62
    1
 10
8787.5607779999991
 20
3685.1304700000001
 40
12
 50
180
 51
270
  0
ARC
  8
_0-2_LAYER1
  6
CONTINUOUS
 62
    1
 10
8787.5607779999991
 20
3685.1304700000001
 40
10
 50
180
 51
270
  0
LINE
  8
_0-2_LAYER1
  6
CONTINUOUS
 62
    1
 10
9147.5607779999991
 20
3675.1304700000001
 11
8787.5607779999991
 21
3675.1304700000001
  0
ARC
  8
_0-2_LAYER1
  6
CONTINUOUS
 62
    1
 10
9147.5607779999991
 20
3685.1304700000001
 40
12
 50
270
 51
0
  0
ARC
  8
_0-2_LAYER1
  6
CONTINUOUS
 62
    1
 10
9147.5607779999991
 20
3685.1304700000001
 40
10
 50
270
 51
0
  0
ARC
  8
_0-2_LAYER1
  6
CONTINUOUS
 62
    1
 10
9287.5607779999991
 20
3685.1304700000001
 40
12
 50
180
 51
270
  0
ARC
  8
_0-2_LAYER1
  6
CONTINUOUS
 62
    1
 10
9287.5607779999991
 20
3685.1304700000001
 40
10
 50
180
 51
270
  0
LINE
  8
_0-2_LAYER1
  6
CONTINUOUS
 62
    1
 10
9647.5607779999991
 20
3675.1304700000001
 11
9287.5607779999991
 21
3675.1304700000001
  0
ARC
  8
_0-2_LAYER1
  6
CONTINUOUS
 62
    1
 10
9647.5607779999991
 20
3685.1304700000001
 40
12
 50
270
 51
0
  0
ARC
  8
_0-2_LAYER1
  6
CONTINUOUS
 62
    1
 10
9647.5607779999991
 20
3685.1304700000001
 40
10
 50
270
 51
0
  0
ARC
  8
_0-2_LAYER1
  6
CONTINUOUS
 62
    1
 10
9787.5607779999991
 20
3685.1304700000001
 40
12
 50
180
 51
270
  0
ARC
  8
_0-2_LAYER1
  6
CONTINUOUS
 62
    1
 10
9787.5607779999991
 20
3685.1304700000001
 40
10
 50
180
 51
270
  0
LINE
  8
_0-2_LAYER1
  6
CONTINUOUS
 62
    1
 10
10147.560777999999
 20
3675.1304700000001
 11
9787.5607779999991
 21
3675.1304700000001
  0
ARC
  8
_0-2_LAYER1
  6
CONTINUOUS
 62
    1
 10
10147.560777999999
 20
3685.1304700000001
 40
12
 50
270
 51
0
  0
ARC
  8
_0-2_LAYER1
  6
CONTINUOUS
 62
    1
 10
10147.560777999999
 20
3685.1304700000001
 40
10
 50
270
 51
0
  0
ARC
  8
_0-2_LAYER1
  6
CONTINUOUS
 62
    1
 10
10287.560777999999
 20
3685.1304700000001
 40
12
 50
180
 51
270
  0
ARC
  8
_0-2_LAYER1
  6
CONTINUOUS
 62
    1
 10
10287.560777999999
 20
3685.1304700000001
 40
10
 50
180
 51
270
  0
LINE
  8
_0-2_LAYER1
  6
CONTINUOUS
 62
    1
 10
10647.560777999999
 20
3675.1304700000001
 11
10287.560777999999
 21
3675.1304700000001
  0
ARC
  8
_0-2_LAYER1
  6
CONTINUOUS
 62
    1
 10
11147.560777999999
 20
3685.1304700000001
 40
12
 50
270
 51
0
  0
ARC
  8
_0-2_LAYER1
  6
CONTINUOUS
 62
    1
 10
11147.560777999999
 20
3685.1304700000001
 40
10
 50
270
 51
0
  0
ARC
  8
_0-2_LAYER1
  6
CONTINUOUS
 62
    1
 10
11287.560777999999
 20
3685.1304700000001
 40
12
 50
180
 51
270
  0
ARC
  8
_0-2_LAYER1
  6
CONTINUOUS
 62
    1
 10
11287.560777999999
 20
3685.1304700000001
 40
10
 50
180
 51
270
  0
LINE
  8
_0-2_LAYER1
  6
CONTINUOUS
 62
    1
 10
11647.560777999999
 20
3675.1304700000001
 11
11287.560777999999
 21
3675.1304700000001
  0
ARC
  8
_0-2_LAYER1
  6
CONTINUOUS
 62
    1
 10
11647.560777999999
 20
3685.1304700000001
 40
12
 50
270
 51
0
  0
ARC
  8
_0-2_LAYER1
  6
CONTINUOUS
 62
    1
 10
11647.560777999999
 20
3685.1304700000001
 40
10
 50
270
 51
0
  0
ARC
  8
_0-2_LAYER1
  6
CONTINUOUS
 62
    1
 10
11787.560777999999
 20
3685.1304700000001
 40
12
 50
180
 51
270
  0
ARC
  8
_0-2_LAYER1
  6
CONTINUOUS
 62
    1
 10
11787.560777999999
 20
3685.1304700000001
 40
10
 50
180
 51
270
  0
LINE
  8
_0-2_LAYER1
  6
CONTINUOUS
 62
    1
 10
12147.560777999999
 20
3675.1304700000001
 11
11787.560777999999
 21
3675.1304700000001
  0
ARC
  8
_0-2_LAYER1
  6
CONTINUOUS
 62
    1
 10
12147.560777999999
 20
3685.1304700000001
 40
12
 50
270
 51
0
  0
ARC
  8
_0-2_LAYER1
  6
CONTINUOUS
 62
    1
 10
12147.560777999999
 20
3685.1304700000001
 40
10
 50
270
 51
0
  0
ARC
  8
_0-2_LAYER1
  6
CONTINUOUS
 62
    1
 10
12287.560777999999
 20
3685.1304700000001
 40
12
 50
180
 51
270
  0
ARC
  8
_0-2_LAYER1
  6
CONTINUOUS
 62
    1
 10
12287.560777999999
 20
3685.1304700000001
 40
10
 50
180
 51
270
  0
LINE
  8
_0-2_LAYER1
  6
CONTINUOUS
 62
    1
 10
12647.560777999999
 20
3675.1304700000001
 11
12287.560777999999
 21
3675.1304700000001
  0
ARC
  8
_0-2_LAYER1
  6
CONTINUOUS
 62
    1
 10
12647.560777999999
 20
3685.1304700000001
 40
12
 50
270
 51
0
  0
ARC
  8
_0-2_LAYER1
  6
CONTINUOUS
 62
    1
 10
12647.560777999999
 20
3685.1304700000001
 40
10
 50
270
 51
0
  0
ARC
  8
_0-2_LAYER1
  6
CONTINUOUS
 62
    1
 10
12787.560777999999
 20
3685.1304700000001
 40
12
 50
180
 51
270
  0
ARC
  8
_0-2_LAYER1
  6
CONTINUOUS
 62
    1
 10
12787.560777999999
 20
3685.1304700000001
 40
10
 50
180
 51
270
  0
LINE
  8
_0-2_LAYER1
  6
CONTINUOUS
 62
    1
 10
13147.560777999999
 20
3675.1304700000001
 11
12787.560777999999
 21
3675.1304700000001
  0
ARC
  8
_0-2_LAYER1
  6
CONTINUOUS
 62
    1
 10
10647.560777999999
 20
3685.1304700000001
 40
12
 50
270
 51
0
  0
ARC
  8
_0-2_LAYER1
  6
CONTINUOUS
 62
    1
 10
10647.560777999999
 20
3685.1304700000001
 40
10
 50
270
 51
0
  0
ARC
  8
_0-2_LAYER1
  6
CONTINUOUS
 62
    1
 10
10787.560777999999
 20
3685.1304700000001
 40
12
 50
180
 51
270
  0
ARC
  8
_0-2_LAYER1
  6
CONTINUOUS
 62
    1
 10
10787.560777999999
 20
3685.1304700000001
 40
10
 50
180
 51
270
  0
LINE
  8
_0-2_LAYER1
  6
CONTINUOUS
 62
    1
 10
11147.560777999999
 20
3675.1304700000001
 11
10787.560777999999
 21
3675.1304700000001
  0
ARC
  8
_0-2_LAYER1
  6
CONTINUOUS
 62
    1
 10
13147.560777999999
 20
3685.1304700000001
 40
12
 50
270
 51
0
  0
ARC
  8
_0-2_LAYER1
  6
CONTINUOUS
 62
    1
 10
13147.560777999999
 20
3685.1304700000001
 40
10
 50
270
 51
0
  0
ARC
  8
_0-2_LAYER1
  6
CONTINUOUS
 62
    1
 10
13287.560777999999
 20
3685.1304700000001
 40
12
 50
180
 51
270
  0
ARC
  8
_0-2_LAYER1
  6
CONTINUOUS
 62
    1
 10
13287.560777999999
 20
3685.1304700000001
 40
10
 50
180
 51
270
  0
LINE
  8
_0-2_LAYER1
  6
CONTINUOUS
 62
    1
 10
13647.560777999999
 20
3675.1304700000001
 11
13287.560777999999
 21
3675.1304700000001
  0
ARC
  8
_0-2_LAYER1
  6
CONTINUOUS
 62
    1
 10
13647.560777999999
 20
3685.1304700000001
 40
12
 50
270
 51
0
  0
ARC
  8
_0-2_LAYER1
  6
CONTINUOUS
 62
    1
 10
13647.560777999999
 20
3685.1304700000001
 40
10
 50
270
 51
0
  0
ARC
  8
_0-2_LAYER1
  6
CONTINUOUS
 62
    1
 10
13787.560777999999
 20
3685.1304700000001
 40
12
 50
180
 51
270
  0
ARC
  8
_0-2_LAYER1
  6
CONTINUOUS
 62
    1
 10
13787.560777999999
 20
3685.1304700000001
 40
10
 50
180
 51
270
  0
LINE
  8
_0-2_LAYER1
  6
CONTINUOUS
 62
    1
 10
14147.560777999999
 20
3675.1304700000001
 11
13787.560777999999
 21
3675.1304700000001
  0
ARC
  8
_0-2_LAYER1
  6
CONTINUOUS
 62
    1
 10
14147.560777999999
 20
3685.1304700000001
 40
12
 50
270
 51
0
  0
ARC
  8
_0-2_LAYER1
  6
CONTINUOUS
 62
    1
 10
14147.560777999999
 20
3685.1304700000001
 40
10
 50
270
 51
0
  0
ARC
  8
_0-2_LAYER1
  6
CONTINUOUS
 62
    1
 10
14287.560777999999
 20
3685.1304700000001
 40
12
 50
180
 51
270
  0
ARC
  8
_0-2_LAYER1
  6
CONTINUOUS
 62
    1
 10
14287.560777999999
 20
3685.1304700000001
 40
10
 50
180
 51
270
  0
LINE
  8
_0-2_LAYER1
  6
CONTINUOUS
 62
    1
 10
14647.560777999999
 20
3675.1304700000001
 11
14287.560777999999
 21
3675.1304700000001
  0
ARC
  8
_0-2_LAYER1
  6
CONTINUOUS
 62
    1
 10
14647.560777999999
 20
3685.1304700000001
 40
12
 50
270
 51
0
  0
ARC
  8
_0-2_LAYER1
  6
CONTINUOUS
 62
    1
 10
14647.560777999999
 20
3685.1304700000001
 40
10
 50
270
 51
0
  0
ARC
  8
_0-2_LAYER1
  6
CONTINUOUS
 62
    1
 10
14787.560777999999
 20
3685.1304700000001
 40
12
 50
180
 51
270
  0
ARC
  8
_0-2_LAYER1
  6
CONTINUOUS
 62
    1
 10
14787.560777999999
 20
3685.1304700000001
 40
10
 50
180
 51
270
  0
LINE
  8
_0-2_LAYER1
  6
CONTINUOUS
 62
    1
 10
15147.560777999999
 20
3675.1304700000001
 11
14787.560777999999
 21
3675.1304700000001
  0
ARC
  8
_0-2_LAYER1
  6
CONTINUOUS
 62
    1
 10
15147.560777999999
 20
3685.1304700000001
 40
12
 50
270
 51
0
  0
ARC
  8
_0-2_LAYER1
  6
CONTINUOUS
 62
    1
 10
15147.560777999999
 20
3685.1304700000001
 40
10
 50
270
 51
0
  0
ARC
  8
_0-2_LAYER1
  6
CONTINUOUS
 62
    1
 10
15287.560777999999
 20
3685.1304700000001
 40
12
 50
180
 51
270
  0
ARC
  8
_0-2_LAYER1
  6
CONTINUOUS
 62
    1
 10
15287.560777999999
 20
3685.1304700000001
 40
10
 50
180
 51
270
  0
LINE
  8
_0-2_LAYER1
  6
CONTINUOUS
 62
    1
 10
15467.560777999999
 20
3675.1304700000001
 11
15287.560777999999
 21
3675.1304700000001
  0
LINE
  8
_0-2_LAYER1
  6
CONTINUOUS
 62
    1
 10
6484.560778
 20
2433.1304700000001
 11
15484.560777999999
 21
2433.1304700000001
  0
LINE
  8
_0-2_LAYER1
  6
CONTINUOUS
 62
    1
 10
6484.560778
 20
2433.1304700000001
 11
6484.560778
 21
2233.1304700000001
  0
LINE
  8
_0-2_LAYER1
  6
CONTINUOUS
 62
    1
 10
6484.560778
 20
2233.1304700000001
 11
15484.560777999999
 21
2233.1304700000001
  0
LINE
  8
_0-2_LAYER1
  6
CONTINUOUS
 62
    1
 10
15484.560777999999
 20
2233.1304700000001
 11
15484.560777999999
 21
2433.1304700000001
  0
LINE
  8
_0-2_LAYER1
  6
CONTINUOUS
 62
    1
 10
6734.560778
 20
2433.1304700000001
 11
6734.560778
 21
2233.1304700000001
  0
LINE
  8
_0-2_LAYER1
  6
CONTINUOUS
 62
    1
 10
7234.560778
 20
2233.1304700000001
 11
7234.560778
 21
2433.1304700000001
  0
LINE
  8
_0-2_LAYER1
  6
CONTINUOUS
 62
    1
 10
7534.560778
 20
2433.1304700000001
 11
7534.560778
 21
2233.1304700000001
  0
LINE
  8
_0-2_LAYER1
  6
CONTINUOUS
 62
    1
 10
8034.560778
 20
2233.1304700000001
 11
8034.560778
 21
2433.1304700000001
  0
LINE
  8
_0-2_LAYER1
  6
CONTINUOUS
 62
    1
 10
8334.5607779999991
 20
2433.1304700000001
 11
8334.5607779999991
 21
2233.1304700000001
  0
LINE
  8
_0-2_LAYER1
  6
CONTINUOUS
 62
    1
 10
8834.5607779999991
 20
2233.1304700000001
 11
8834.5607779999991
 21
2433.1304700000001
  0
LINE
  8
_0-2_LAYER1
  6
CONTINUOUS
 62
    1
 10
9134.5607779999991
 20
2433.1304700000001
 11
9134.5607779999991
 21
2233.1304700000001
  0
LINE
  8
_0-2_LAYER1
  6
CONTINUOUS
 62
    1
 10
9634.5607779999991
 20
2233.1304700000001
 11
9634.5607779999991
 21
2433.1304700000001
  0
LINE
  8
_0-2_LAYER1
  6
CONTINUOUS
 62
    1
 10
9934.5607779999991
 20
2433.1304700000001
 11
9934.5607779999991
 21
2233.1304700000001
  0
LINE
  8
_0-2_LAYER1
  6
CONTINUOUS
 62
    1
 10
10434.560777999999
 20
2233.1304700000001
 11
10434.560777999999
 21
2433.1304700000001
  0
LINE
  8
_0-2_LAYER1
  6
CONTINUOUS
 62
    1
 10
10734.560777999999
 20
2433.1304700000001
 11
10734.560777999999
 21
2233.1304700000001
  0
LINE
  8
_0-2_LAYER1
  6
CONTINUOUS
 62
    1
 10
11234.560777999999
 20
2233.1304700000001
 11
11234.560777999999
 21
2433.1304700000001
  0
LINE
  8
_0-2_LAYER1
  6
CONTINUOUS
 62
    1
 10
11534.560777999999
 20
2433.1304700000001
 11
11534.560777999999
 21
2233.1304700000001
  0
LINE
  8
_0-2_LAYER1
  6
CONTINUOUS
 62
    1
 10
12034.560777999999
 20
2233.1304700000001
 11
12034.560777999999
 21
2433.1304700000001
  0
LINE
  8
_0-2_LAYER1
  6
CONTINUOUS
 62
    1
 10
12334.560777999999
 20
2433.1304700000001
 11
12334.560777999999
 21
2233.1304700000001
  0
LINE
  8
_0-2_LAYER1
  6
CONTINUOUS
 62
    1
 10
12834.560777999999
 20
2233.1304700000001
 11
12834.560777999999
 21
2433.1304700000001
  0
LINE
  8
_0-2_LAYER1
  6
CONTINUOUS
 62
    1
 10
13134.560777999999
 20
2433.1304700000001
 11
13134.560777999999
 21
2233.1304700000001
  0
LINE
  8
_0-2_LAYER1
  6
CONTINUOUS
 62
    1
 10
13634.560777999999
 20
2233.1304700000001
 11
13634.560777999999
 21
2433.1304700000001
  0
LINE
  8
_0-2_LAYER1
  6
CONTINUOUS
 62
    1
 10
13934.560777999999
 20
2433.1304700000001
 11
13934.560777999999
 21
2233.1304700000001
  0
LINE
  8
_0-2_LAYER1
  6
CONTINUOUS
 62
    1
 10
14434.560777999999
 20
2233.1304700000001
 11
14434.560777999999
 21
2433.1304700000001
  0
LINE
  8
_0-2_LAYER1
  6
CONTINUOUS
 62
    1
 10
14734.560777999999
 20
2433.1304700000001
 11
14734.560777999999
 21
2233.1304700000001
  0
LINE
  8
_0-2_LAYER1
  6
CONTINUOUS
 62
    1
 10
15234.560777999999
 20
2233.1304700000001
 11
15234.560777999999
 21
2433.1304700000001
  0
LINE
  8
_0-2_LAYER1
  6
CONTINUOUS
 62
    1
 10
6734.560778
 20
2353.1304700000001
 11
7234.560778
 21
2353.1304700000001
  0
LINE
  8
_0-2_LAYER1
  6
CONTINUOUS
 62
    1
 10
7534.560778
 20
2353.1304700000001
 11
8034.560778
 21
2353.1304700000001
  0
LINE
  8
_0-2_LAYER1
  6
CONTINUOUS
 62
    1
 10
8334.5607779999991
 20
2353.1304700000001
 11
8834.5607779999991
 21
2353.1304700000001
  0
LINE
  8
_0-2_LAYER1
  6
CONTINUOUS
 62
    1
 10
9134.5607779999991
 20
2353.1304700000001
 11
9634.5607779999991
 21
2353.1304700000001
  0
LINE
  8
_0-2_LAYER1
  6
CONTINUOUS
 62
    1
 10
9934.5607779999991
 20
2353.1304700000001
 11
10434.560777999999
 21
2353.1304700000001
  0
LINE
  8
_0-2_LAYER1
  6
CONTINUOUS
 62
    1
 10
10734.560777999999
 20
2353.1304700000001
 11
11234.560777999999
 21
2353.1304700000001
  0
LINE
  8
_0-2_LAYER1
  6
CONTINUOUS
 62
    1
 10
11534.560777999999
 20
2353.1304700000001
 11
12034.560777999999
 21
2353.1304700000001
  0
LINE
  8
_0-2_LAYER1
  6
CONTINUOUS
 62
    1
 10
12334.560777999999
 20
2353.1304700000001
 11
12834.560777999999
 21
2353.1304700000001
  0
LINE
  8
_0-2_LAYER1
  6
CONTINUOUS
 62
    1
 10
13134.560777999999
 20
2353.1304700000001
 11
13634.560777999999
 21
2353.1304700000001
  0
LINE
  8
_0-2_LAYER1
  6
CONTINUOUS
 62
    1
 10
13934.560777999999
 20
2353.1304700000001
 11
14434.560777999999
 21
2353.1304700000001
  0
LINE
  8
_0-2_LAYER1
  6
CONTINUOUS
 62
    1
 10
14734.560777999999
 20
2353.1304700000001
 11
15234.560777999999
 21
2353.1304700000001
  0
LINE
  8
_0-2_LAYER1
  6
CONTINUOUS
 62
    1
 10
15484.560777999999
 20
1979.1304700000001
 11
15484.560777999999
 21
1149.1304700000001
  0
LINE
  8
_0-2_LAYER1
  6
CONTINUOUS
 62
    1
 10
15484.560777999999
 20
1149.1304700000001
 11
6484.560778
 21
1149.1304700000001
  0
LINE
  8
_0-2_LAYER1
  6
CONTINUOUS
 62
    1
 10
6484.560778
 20
1979.1304700000001
 11
6484.560778
 21
1149.1304700000001
  0
LINE
  8
_0-2_LAYER1
  6
CONTINUOUS
 62
    1
 10
15484.560777999999
 20
1979.1304700000001
 11
6484.560778
 21
1979.1304700000001
  0
LINE
  8
_0-2_LAYER1
  6
CONTINUOUS
 62
    1
 10
6445.560778
 20
4465.1304700000001
 11
15445.560777999999
 21
4465.1304700000001
  0
LINE
  8
_0-2_LAYER1
  6
DASHED
 62
    1
 10
6445.560778
 20
6914.0037840000005
 11
15445.560777999999
 21
6914.0037840000005
  0
LINE
  8
_0-2_LAYER1
  6
DASHED
 62
    1
 10
14645.560777999999
 20
7431.1304700000001
 11
14645.560777999999
 21
7631.1304700000001
  0
LINE
  8
_0-2_LAYER1
  6
DASHED
 62
    1
 10
14645.560777999999
 20
7631.1304700000001
 11
15145.560777999999
 21
7631.1304700000001
  0
LINE
  8
_0-2_LAYER1
  6
DASHED
 62
    1
 10
15145.560777999999
 20
7631.1304700000001
 11
15145.560777999999
 21
7431.1304700000001
  0
LINE
  8
_0-2_LAYER1
  6
DASHED
 62
    1
 10
15145.560777999999
 20
7431.1304700000001
 11
14645.560777999999
 21
7431.1304700000001
  0
LINE
  8
_0-2_LAYER1
  6
DASHED
 62
    1
 10
13845.560777999999
 20
7431.1304700000001
 11
13845.560777999999
 21
7631.1304700000001
  0
LINE
  8
_0-2_LAYER1
  6
DASHED
 62
    1
 10
13845.560777999999
 20
7631.1304700000001
 11
14345.560777999999
 21
7631.1304700000001
  0
LINE
  8
_0-2_LAYER1
  6
DASHED
 62
    1
 10
14345.560777999999
 20
7631.1304700000001
 11
14345.560777999999
 21
7431.1304700000001
  0
LINE
  8
_0-2_LAYER1
  6
DASHED
 62
    1
 10
14345.560777999999
 20
7431.1304700000001
 11
13845.560777999999
 21
7431.1304700000001
  0
LINE
  8
_0-2_LAYER1
  6
DASHED
 62
    1
 10
13045.560777999999
 20
7431.1304700000001
 11
13045.560777999999
 21
7631.1304700000001
  0
LINE
  8
_0-2_LAYER1
  6
DASHED
 62
    1
 10
13045.560777999999
 20
7631.1304700000001
 11
13545.560777999999
 21
7631.1304700000001
  0
LINE
  8
_0-2_LAYER1
  6
DASHED
 62
    1
 10
13545.560777999999
 20
7631.1304700000001
 11
13545.560777999999
 21
7431.1304700000001
  0
LINE
  8
_0-2_LAYER1
  6
DASHED
 62
    1
 10
13545.560777999999
 20
7431.1304700000001
 11
13045.560777999999
 21
7431.1304700000001
  0
LINE
  8
_0-2_LAYER1
  6
DASHED
 62
    1
 10
12245.560777999999
 20
7431.1304700000001
 11
12245.560777999999
 21
7631.1304700000001
  0
LINE
  8
_0-2_LAYER1
  6
DASHED
 62
    1
 10
12245.560777999999
 20
7631.1304700000001
 11
12745.560777999999
 21
7631.1304700000001
  0
LINE
  8
_0-2_LAYER1
  6
DASHED
 62
    1
 10
12745.560777999999
 20
7631.1304700000001
 11
12745.560777999999
 21
7431.1304700000001
  0
LINE
  8
_0-2_LAYER1
  6
DASHED
 62
    1
 10
12745.560777999999
 20
7431.1304700000001
 11
12245.560777999999
 21
7431.1304700000001
  0
LINE
  8
_0-2_LAYER1
  6
DASHED
 62
    1
 10
11445.560777999999
 20
7431.1304700000001
 11
11445.560777999999
 21
7631.1304700000001
  0
LINE
  8
_0-2_LAYER1
  6
DASHED
 62
    1
 10
11445.560777999999
 20
7631.1304700000001
 11
11945.560777999999
 21
7631.1304700000001
  0
LINE
  8
_0-2_LAYER1
  6
DASHED
 62
    1
 10
11945.560777999999
 20
7631.1304700000001
 11
11945.560777999999
 21
7431.1304700000001
  0
LINE
  8
_0-2_LAYER1
  6
DASHED
 62
    1
 10
11945.560777999999
 20
7431.1304700000001
 11
11445.560777999999
 21
7431.1304700000001
  0
LINE
  8
_0-2_LAYER1
  6
DASHED
 62
    1
 10
10645.560777999999
 20
7431.1304700000001
 11
10645.560777999999
 21
7631.1304700000001
  0
LINE
  8
_0-2_LAYER1
  6
DASHED
 62
    1
 10
10645.560777999999
 20
7631.1304700000001
 11
11145.560777999999
 21
7631.1304700000001
  0
LINE
  8
_0-2_LAYER1
  6
DASHED
 62
    1
 10
11145.560777999999
 20
7631.1304700000001
 11
11145.560777999999
 21
7431.1304700000001
  0
LINE
  8
_0-2_LAYER1
  6
DASHED
 62
    1
 10
11145.560777999999
 20
7431.1304700000001
 11
10645.560777999999
 21
7431.1304700000001
  0
LINE
  8
_0-2_LAYER1
  6
DASHED
 62
    1
 10
9845.5607779999991
 20
7431.1304700000001
 11
9845.5607779999991
 21
7631.1304700000001
  0
LINE
  8
_0-2_LAYER1
  6
DASHED
 62
    1
 10
9845.5607779999991
 20
7631.1304700000001
 11
10345.560777999999
 21
7631.1304700000001
  0
LINE
  8
_0-2_LAYER1
  6
DASHED
 62
    1
 10
10345.560777999999
 20
7631.1304700000001
 11
10345.560777999999
 21
7431.1304700000001
  0
LINE
  8
_0-2_LAYER1
  6
DASHED
 62
    1
 10
10345.560777999999
 20
7431.1304700000001
 11
9845.5607779999991
 21
7431.1304700000001
  0
LINE
  8
_0-2_LAYER1
  6
DASHED
 62
    1
 10
9045.5607779999991
 20
7431.1304700000001
 11
9045.5607779999991
 21
7631.1304700000001
  0
LINE
  8
_0-2_LAYER1
  6
DASHED
 62
    1
 10
9045.5607779999991
 20
7631.1304700000001
 11
9545.5607779999991
 21
7631.1304700000001
  0
LINE
  8
_0-2_LAYER1
  6
DASHED
 62
    1
 10
9545.5607779999991
 20
7631.1304700000001
 11
9545.5607779999991
 21
7431.1304700000001
  0
LINE
  8
_0-2_LAYER1
  6
DASHED
 62
    1
 10
9545.5607779999991
 20
7431.1304700000001
 11
9045.5607779999991
 21
7431.1304700000001
  0
LINE
  8
_0-2_LAYER1
  6
DASHED
 62
    1
 10
8245.5607779999991
 20
7431.1304700000001
 11
8245.5607779999991
 21
7631.1304700000001
  0
LINE
  8
_0-2_LAYER1
  6
DASHED
 62
    1
 10
8245.5607779999991
 20
7631.1304700000001
 11
8745.5607779999991
 21
7631.1304700000001
  0
LINE
  8
_0-2_LAYER1
  6
DASHED
 62
    1
 10
8745.5607779999991
 20
7631.1304700000001
 11
8745.5607779999991
 21
7431.1304700000001
  0
LINE
  8
_0-2_LAYER1
  6
DASHED
 62
    1
 10
8745.5607779999991
 20
7431.1304700000001
 11
8245.5607779999991
 21
7431.1304700000001
  0
LINE
  8
_0-2_LAYER1
  6
DASHED
 62
    1
 10
7445.560778
 20
7431.1304700000001
 11
7445.560778
 21
7631.1304700000001
  0
LINE
  8
_0-2_LAYER1
  6
DASHED
 62
    1
 10
7445.560778
 20
7631.1304700000001
 11
7945.560778
 21
7631.1304700000001
  0
LINE
  8
_0-2_LAYER1
  6
DASHED
 62
    1
 10
7945.560778
 20
7631.1304700000001
 11
7945.560778
 21
7431.1304700000001
  0
LINE
  8
_0-2_LAYER1
  6
DASHED
 62
    1
 10
7945.560778
 20
7431.1304700000001
 11
7445.560778
 21
7431.1304700000001
  0
LINE
  8
_0-2_LAYER1
  6
DASHED
 62
    1
 10
6645.560778
 20
7431.1304700000001
 11
6645.560778
 21
7631.1304700000001
  0
LINE
  8
_0-2_LAYER1
  6
DASHED
 62
    1
 10
6645.560778
 20
7631.1304700000001
 11
7145.560778
 21
7631.1304700000001
  0
LINE
  8
_0-2_LAYER1
  6
DASHED
 62
    1
 10
7145.560778
 20
7631.1304700000001
 11
7145.560778
 21
7431.1304700000001
  0
LINE
  8
_0-2_LAYER1
  6
DASHED
 62
    1
 10
7145.560778
 20
7431.1304700000001
 11
6645.560778
 21
7431.1304700000001
  0
LINE
  8
_0-2_LAYER1
  6
CONTINUOUS
 62
    1
 10
7245.560778
 20
6914.0037840000005
 11
7245.560778
 21
7114.0037840000005
  0
LINE
  8
_0-2_LAYER1
  6
CONTINUOUS
 62
    1
 10
7245.560778
 20
7114.0037840000005
 11
7745.560778
 21
7114.0037840000005
  0
LINE
  8
_0-2_LAYER1
  6
CONTINUOUS
 62
    1
 10
7745.560778
 20
7114.0037840000005
 11
7745.560778
 21
6914.0037840000005
  0
LINE
  8
_0-2_LAYER1
  6
CONTINUOUS
 62
    1
 10
7745.560778
 20
6914.0037840000005
 11
7245.560778
 21
6914.0037840000005
  0
LINE
  8
_0-2_LAYER1
  6
CONTINUOUS
 62
    1
 10
8045.560778
 20
6914.0037840000005
 11
8045.560778
 21
7114.0037840000005
  0
LINE
  8
_0-2_LAYER1
  6
CONTINUOUS
 62
    1
 10
8045.560778
 20
7114.0037840000005
 11
8545.5607779999991
 21
7114.0037840000005
  0
LINE
  8
_0-2_LAYER1
  6
CONTINUOUS
 62
    1
 10
8545.5607779999991
 20
7114.0037840000005
 11
8545.5607779999991
 21
6914.0037840000005
  0
LINE
  8
_0-2_LAYER1
  6
CONTINUOUS
 62
    1
 10
8545.5607779999991
 20
6914.0037840000005
 11
8045.560778
 21
6914.0037840000005
  0
LINE
  8
_0-2_LAYER1
  6
CONTINUOUS
 62
    1
 10
8845.5607779999991
 20
6914.0037840000005
 11
8845.5607779999991
 21
7114.0037840000005
  0
LINE
  8
_0-2_LAYER1
  6
CONTINUOUS
 62
    1
 10
8845.5607779999991
 20
7114.0037840000005
 11
9345.5607779999991
 21
7114.0037840000005
  0
LINE
  8
_0-2_LAYER1
  6
CONTINUOUS
 62
    1
 10
9345.5607779999991
 20
7114.0037840000005
 11
9345.5607779999991
 21
6914.0037840000005
  0
LINE
  8
_0-2_LAYER1
  6
CONTINUOUS
 62
    1
 10
9345.5607779999991
 20
6914.0037840000005
 11
8845.5607779999991
 21
6914.0037840000005
  0
LINE
  8
_0-2_LAYER1
  6
CONTINUOUS
 62
    1
 10
9645.5607779999991
 20
6914.0037840000005
 11
9645.5607779999991
 21
7114.0037840000005
  0
LINE
  8
_0-2_LAYER1
  6
CONTINUOUS
 62
    1
 10
9645.5607779999991
 20
7114.0037840000005
 11
10145.560777999999
 21
7114.0037840000005
  0
LINE
  8
_0-2_LAYER1
  6
CONTINUOUS
 62
    1
 10
10145.560777999999
 20
7114.0037840000005
 11
10145.560777999999
 21
6914.0037840000005
  0
LINE
  8
_0-2_LAYER1
  6
CONTINUOUS
 62
    1
 10
10145.560777999999
 20
6914.0037840000005
 11
9645.5607779999991
 21
6914.0037840000005
  0
LINE
  8
_0-2_LAYER1
  6
CONTINUOUS
 62
    1
 10
10445.560777999999
 20
6914.0037840000005
 11
10445.560777999999
 21
7114.0037840000005
  0
LINE
  8
_0-2_LAYER1
  6
CONTINUOUS
 62
    1
 10
10445.560777999999
 20
7114.0037840000005
 11
10945.560777999999
 21
7114.0037840000005
  0
LINE
  8
_0-2_LAYER1
  6
CONTINUOUS
 62
    1
 10
10945.560777999999
 20
7114.0037840000005
 11
10945.560777999999
 21
6914.0037840000005
  0
LINE
  8
_0-2_LAYER1
  6
CONTINUOUS
 62
    1
 10
10945.560777999999
 20
6914.0037840000005
 11
10445.560777999999
 21
6914.0037840000005
  0
LINE
  8
_0-2_LAYER1
  6
CONTINUOUS
 62
    1
 10
11245.560777999999
 20
6914.0037840000005
 11
11245.560777999999
 21
7114.0037840000005
  0
LINE
  8
_0-2_LAYER1
  6
CONTINUOUS
 62
    1
 10
11245.560777999999
 20
7114.0037840000005
 11
11745.560777999999
 21
7114.0037840000005
  0
LINE
  8
_0-2_LAYER1
  6
CONTINUOUS
 62
    1
 10
11745.560777999999
 20
7114.0037840000005
 11
11745.560777999999
 21
6914.0037840000005
  0
LINE
  8
_0-2_LAYER1
  6
CONTINUOUS
 62
    1
 10
11745.560777999999
 20
6914.0037840000005
 11
11245.560777999999
 21
6914.0037840000005
  0
LINE
  8
_0-2_LAYER1
  6
CONTINUOUS
 62
    1
 10
12045.560777999999
 20
6914.0037840000005
 11
12045.560777999999
 21
7114.0037840000005
  0
LINE
  8
_0-2_LAYER1
  6
CONTINUOUS
 62
    1
 10
12045.560777999999
 20
7114.0037840000005
 11
12545.560777999999
 21
7114.0037840000005
  0
LINE
  8
_0-2_LAYER1
  6
CONTINUOUS
 62
    1
 10
12545.560777999999
 20
7114.0037840000005
 11
12545.560777999999
 21
6914.0037840000005
  0
LINE
  8
_0-2_LAYER1
  6
CONTINUOUS
 62
    1
 10
12545.560777999999
 20
6914.0037840000005
 11
12045.560777999999
 21
6914.0037840000005
  0
LINE
  8
_0-2_LAYER1
  6
CONTINUOUS
 62
    1
 10
12845.560777999999
 20
6914.0037840000005
 11
12845.560777999999
 21
7114.0037840000005
  0
LINE
  8
_0-2_LAYER1
  6
CONTINUOUS
 62
    1
 10
12845.560777999999
 20
7114.0037840000005
 11
13345.560777999999
 21
7114.0037840000005
  0
LINE
  8
_0-2_LAYER1
  6
CONTINUOUS
 62
    1
 10
13345.560777999999
 20
7114.0037840000005
 11
13345.560777999999
 21
6914.0037840000005
  0
LINE
  8
_0-2_LAYER1
  6
CONTINUOUS
 62
    1
 10
13345.560777999999
 20
6914.0037840000005
 11
12845.560777999999
 21
6914.0037840000005
  0
LINE
  8
_0-2_LAYER1
  6
CONTINUOUS
 62
    1
 10
13645.560777999999
 20
6914.0037840000005
 11
13645.560777999999
 21
7114.0037840000005
  0
LINE
  8
_0-2_LAYER1
  6
CONTINUOUS
 62
    1
 10
13645.560777999999
 20
7114.0037840000005
 11
14145.560777999999
 21
7114.0037840000005
  0
LINE
  8
_0-2_LAYER1
  6
CONTINUOUS
 62
    1
 10
14145.560777999999
 20
7114.0037840000005
 11
14145.560777999999
 21
6914.0037840000005
  0
LINE
  8
_0-2_LAYER1
  6
CONTINUOUS
 62
    1
 10
14145.560777999999
 20
6914.0037840000005
 11
13645.560777999999
 21
6914.0037840000005
  0
LINE
  8
_0-2_LAYER1
  6
CONTINUOUS
 62
    1
 10
14445.560777999999
 20
6914.0037840000005
 11
14445.560777999999
 21
7114.0037840000005
  0
LINE
  8
_0-2_LAYER1
  6
CONTINUOUS
 62
    1
 10
14445.560777999999
 20
7114.0037840000005
 11
14945.560777999999
 21
7114.0037840000005
  0
LINE
  8
_0-2_LAYER1
  6
CONTINUOUS
 62
    1
 10
14945.560777999999
 20
7114.0037840000005
 11
14945.560777999999
 21
6914.0037840000005
  0
LINE
  8
_0-2_LAYER1
  6
CONTINUOUS
 62
    1
 10
14945.560777999999
 20
6914.0037840000005
 11
14445.560777999999
 21
6914.0037840000005
  0
LINE
  8
_0-2_LAYER1
  6
CONTINUOUS
 62
    1
 10
6545.560778
 20
10588.13047
 11
6545.560778
 21
10388.13047
  0
LINE
  8
_0-2_LAYER1
  6
CONTINUOUS
 62
    1
 10
6985.560778
 20
10588.13047
 11
6985.560778
 21
10388.13047
  0
LINE
  8
_0-2_LAYER1
  6
CONTINUOUS
 62
    1
 10
6545.560778
 20
10588.13047
 11
6985.560778
 21
10588.13047
  0
LINE
  8
_0-2_LAYER1
  6
CONTINUOUS
 62
    1
 10
6985.560778
 20
10588.13047
 11
6985.560778
 21
10388.13047
  0
LINE
  8
_0-2_LAYER1
  6
CONTINUOUS
 62
    1
 10
7875.560778
 20
10588.13047
 11
7875.560778
 21
10388.13047
  0
LINE
  8
_0-2_LAYER1
  6
CONTINUOUS
 62
    1
 10
6985.560778
 20
10588.13047
 11
7875.560778
 21
10588.13047
  0
LINE
  8
_0-2_LAYER1
  6
CONTINUOUS
 62
    1
 10
7875.560778
 20
10588.13047
 11
7875.560778
 21
10388.13047
  0
LINE
  8
_0-2_LAYER1
  6
CONTINUOUS
 62
    1
 10
8765.5607779999991
 20
10588.13047
 11
8765.5607779999991
 21
10388.13047
  0
LINE
  8
_0-2_LAYER1
  6
CONTINUOUS
 62
    1
 10
7875.560778
 20
10588.13047
 11
8765.5607779999991
 21
10588.13047
  0
LINE
  8
_0-2_LAYER1
  6
CONTINUOUS
 62
    1
 10
8765.5607779999991
 20
10588.13047
 11
8765.5607779999991
 21
10388.13047
  0
LINE
  8
_0-2_LAYER1
  6
CONTINUOUS
 62
    1
 10
9655.5607779999991
 20
10588.13047
 11
9655.5607779999991
 21
10388.13047
  0
LINE
  8
_0-2_LAYER1
  6
CONTINUOUS
 62
    1
 10
8765.5607779999991
 20
10588.13047
 11
9655.5607779999991
 21
10588.13047
  0
LINE
  8
_0-2_LAYER1
  6
CONTINUOUS
 62
    1
 10
9655.5607779999991
 20
10588.13047
 11
9655.5607779999991
 21
10388.13047
  0
LINE
  8
_0-2_LAYER1
  6
CONTINUOUS
 62
    1
 10
10545.560777999999
 20
10588.13047
 11
10545.560777999999
 21
10388.13047
  0
LINE
  8
_0-2_LAYER1
  6
CONTINUOUS
 62
    1
 10
9655.5607779999991
 20
10588.13047
 11
10545.560777999999
 21
10588.13047
  0
LINE
  8
_0-2_LAYER1
  6
CONTINUOUS
 62
    1
 10
10545.560777999999
 20
10588.13047
 11
10545.560777999999
 21
10388.13047
  0
LINE
  8
_0-2_LAYER1
  6
CONTINUOUS
 62
    1
 10
11435.560777999999
 20
10588.13047
 11
11435.560777999999
 21
10388.13047
  0
LINE
  8
_0-2_LAYER1
  6
CONTINUOUS
 62
    1
 10
10545.560777999999
 20
10588.13047
 11
11435.560777999999
 21
10588.13047
  0
LINE
  8
_0-2_LAYER1
  6
CONTINUOUS
 62
    1
 10
11435.560777999999
 20
10588.13047
 11
11435.560777999999
 21
10388.13047
  0
LINE
  8
_0-2_LAYER1
  6
CONTINUOUS
 62
    1
 10
12325.560777999999
 20
10588.13047
 11
12325.560777999999
 21
10388.13047
  0
LINE
  8
_0-2_LAYER1
  6
CONTINUOUS
 62
    1
 10
11435.560777999999
 20
10588.13047
 11
12325.560777999999
 21
10588.13047
  0
LINE
  8
_0-2_LAYER1
  6
CONTINUOUS
 62
    1
 10
12325.560777999999
 20
10588.13047
 11
12325.560777999999
 21
10388.13047
  0
LINE
  8
_0-2_LAYER1
  6
CONTINUOUS
 62
    1
 10
13215.560777999999
 20
10588.13047
 11
13215.560777999999
 21
10388.13047
  0
LINE
  8
_0-2_LAYER1
  6
CONTINUOUS
 62
    1
 10
12325.560777999999
 20
10588.13047
 11
13215.560777999999
 21
10588.13047
  0
LINE
  8
_0-2_LAYER1
  6
CONTINUOUS
 62
    1
 10
13215.560777999999
 20
10588.13047
 11
13215.560777999999
 21
10388.13047
  0
LINE
  8
_0-2_LAYER1
  6
CONTINUOUS
 62
    1
 10
14105.560777999999
 20
10588.13047
 11
14105.560777999999
 21
10388.13047
  0
LINE
  8
_0-2_LAYER1
  6
CONTINUOUS
 62
    1
 10
13215.560777999999
 20
10588.13047
 11
14105.560777999999
 21
10588.13047
  0
LINE
  8
_0-2_LAYER1
  6
CONTINUOUS
 62
    1
 10
14105.560777999999
 20
10588.13047
 11
14105.560777999999
 21
10388.13047
  0
LINE
  8
_0-2_LAYER1
  6
CONTINUOUS
 62
    1
 10
14995.560777999999
 20
10588.13047
 11
14995.560777999999
 21
10388.13047
  0
LINE
  8
_0-2_LAYER1
  6
CONTINUOUS
 62
    1
 10
14105.560777999999
 20
10588.13047
 11
14995.560777999999
 21
10588.13047
  0
LINE
  8
_0-2_LAYER1
  6
CONTINUOUS
 62
    1
 10
14995.560777999999
 20
10588.13047
 11
14995.560777999999
 21
10388.13047
  0
LINE
  8
_0-2_LAYER1
  6
CONTINUOUS
 62
    1
 10
15445.560777999999
 20
10588.13047
 11
15445.560777999999
 21
10388.13047
  0
LINE
  8
_0-2_LAYER1
  6
CONTINUOUS
 62
    1
 10
14995.560777999999
 20
10588.13047
 11
15445.560777999999
 21
10588.13047
  0
LINE
  8
_0-2_LAYER1
  6
CONTINUOUS
 62
    1
 10
15445.560777999999
 20
10788.13047
 11
15445.560777999999
 21
10588.13047
  0
LINE
  8
_0-2_LAYER1
  6
CONTINUOUS
 62
    1
 10
6545.560778
 20
10788.13047
 11
6545.560778
 21
10588.13047
  0
LINE
  8
_0-2_LAYER1
  6
CONTINUOUS
 62
    1
 10
15445.560777999999
 20
10788.13047
 11
6545.560778
 21
10788.13047
  0
LINE
  8
_0-2_LAYER1
  6
CONTINUOUS
 62
    1
 10
6445.560778
 20
10788.13047
 11
6445.560778
 21
10388.13047
  0
LINE
  8
_0-2_LAYER1
  6
CONTINUOUS
 62
    1
 10
6545.560778
 20
10788.13047
 11
6545.560778
 21
10588.13047
  0
LINE
  8
_0-2_LAYER1
  6
CONTINUOUS
 62
    1
 10
6445.560778
 20
10788.13047
 11
6545.560778
 21
10788.13047
  0
LINE
  8
_0-2_LAYER1
  6
CONTINUOUS
 62
    1
 10
6545.560778
 20
8728.1304700000001
 11
6545.560778
 21
8928.1304700000001
  0
LINE
  8
_0-2_LAYER1
  6
CONTINUOUS
 62
    1
 10
7995.560778
 20
8728.1304700000001
 11
7995.560778
 21
8928.1304700000001
  0
LINE
  8
_0-2_LAYER1
  6
CONTINUOUS
 62
    1
 10
6545.560778
 20
8728.1304700000001
 11
7995.560778
 21
8728.1304700000001
  0
LINE
  8
_0-2_LAYER1
  6
CONTINUOUS
 62
    1
 10
7995.560778
 20
8728.1304700000001
 11
7995.560778
 21
8928.1304700000001
  0
LINE
  8
_0-2_LAYER1
  6
CONTINUOUS
 62
    1
 10
9995.5607779999991
 20
8728.1304700000001
 11
9995.5607779999991
 21
8928.1304700000001
  0
LINE
  8
_0-2_LAYER1
  6
CONTINUOUS
 62
    1
 10
7995.560778
 20
8728.1304700000001
 11
9995.5607779999991
 21
8728.1304700000001
  0
LINE
  8
_0-2_LAYER1
  6
CONTINUOUS
 62
    1
 10
9995.5607779999991
 20
8728.1304700000001
 11
9995.5607779999991
 21
8928.1304700000001
  0
LINE
  8
_0-2_LAYER1
  6
CONTINUOUS
 62
    1
 10
11995.560777999999
 20
8728.1304700000001
 11
11995.560777999999
 21
8928.1304700000001
  0
LINE
  8
_0-2_LAYER1
  6
CONTINUOUS
 62
    1
 10
9995.5607779999991
 20
8728.1304700000001
 11
11995.560777999999
 21
8728.1304700000001
  0
LINE
  8
_0-2_LAYER1
  6
CONTINUOUS
 62
    1
 10
11995.560777999999
 20
8728.1304700000001
 11
11995.560777999999
 21
8928.1304700000001
  0
LINE
  8
_0-2_LAYER1
  6
CONTINUOUS
 62
    1
 10
13995.560777999999
 20
8728.1304700000001
 11
13995.560777999999
 21
8928.1304700000001
  0
LINE
  8
_0-2_LAYER1
  6
CONTINUOUS
 62
    1
 10
11995.560777999999
 20
8728.1304700000001
 11
13995.560777999999
 21
8728.1304700000001
  0
LINE
  8
_0-2_LAYER1
  6
CONTINUOUS
 62
    1
 10
13995.560777999999
 20
8728.1304700000001
 11
13995.560777999999
 21
8928.1304700000001
  0
LINE
  8
_0-2_LAYER1
  6
CONTINUOUS
 62
    1
 10
15445.560777999999
 20
8728.1304700000001
 11
15445.560777999999
 21
8928.1304700000001
  0
LINE
  8
_0-2_LAYER1
  6
CONTINUOUS
 62
    1
 10
13995.560777999999
 20
8728.1304700000001
 11
15445.560777999999
 21
8728.1304700000001
  0
LINE
  8
_0-2_LAYER1
  6
CONTINUOUS
 62
    1
 10
9845.5607779999991
 20
8804.1304700000001
 11
9845.5607779999991
 21
9004.1304700000001
  0
LINE
  8
_0-2_LAYER1
  6
CONTINUOUS
 62
    1
 10
10145.560777999999
 20
8804.1304700000001
 11
10145.560777999999
 21
9004.1304700000001
  0
LINE
  8
_0-2_LAYER1
  6
CONTINUOUS
 62
    1
 10
9845.5607779999991
 20
8804.1304700000001
 11
10145.560777999999
 21
8804.1304700000001
  0
LINE
  8
_0-2_LAYER1
  6
CONTINUOUS
 62
    1
 10
10478.921909999999
 20
9055.1304700000001
 11
10278.921909999999
 21
9055.1304700000001
  0
LINE
  8
_0-2_LAYER1
  6
CONTINUOUS
 62
    1
 10
10478.921909999999
 20
9255.1304700000001
 11
10278.921909999999
 21
9255.1304700000001
  0
LINE
  8
_0-2_LAYER1
  6
CONTINUOUS
 62
    1
 10
10478.921909999999
 20
9055.1304700000001
 11
10478.921909999999
 21
9255.1304700000001
  0
LINE
  8
_0-2_LAYER1
  6
CONTINUOUS
 62
    1
 10
6445.560778
 20
5737.1304700000001
 11
6445.560778
 21
5537.1304700000001
  0
LINE
  8
_0-2_LAYER1
  6
CONTINUOUS
 62
    1
 10
6645.560778
 20
5737.1304700000001
 11
6645.560778
 21
5537.1304700000001
  0
LINE
  8
_0-2_LAYER1
  6
CONTINUOUS
 62
    1
 10
6445.560778
 20
5737.1304700000001
 11
6645.560778
 21
5737.1304700000001
  0
TEXT
  8
_0-2_LAYER1
 62
    7
 10
6493.060778
 20
5757.1304700000001
 40
140
 41
0.8
 50
0
  1
20
  0
LINE
  8
_0-2_LAYER1
  6
CONTINUOUS
 62
    1
 10
6645.560778
 20
5737.1304700000001
 11
6645.560778
 21
5537.1304700000001
  0
LINE
  8
_0-2_LAYER1
  6
CONTINUOUS
 62
    1
 10
7145.560778
 20
5737.1304700000001
 11
7145.560778
 21
5537.1304700000001
  0
LINE
  8
_0-2_LAYER1
  6
CONTINUOUS
 62
    1
 10
6645.560778
 20
5737.1304700000001
 11
7145.560778
 21
5737.1304700000001
  0
TEXT
  8
_0-2_LAYER1
 62
    7
 10
6843.060778
 20
5757.1304700000001
 40
140
 41
0.8
 50
0
  1
50
  0
LINE
  8
_0-2_LAYER1
  6
CONTINUOUS
 62
    1
 10
7145.560778
 20
5737.1304700000001
 11
7145.560778
 21
5537.1304700000001
  0
LINE
  8
_0-2_LAYER1
  6
CONTINUOUS
 62
    1
 10
7445.560778
 20
5737.1304700000001
 11
7445.560778
 21
5537.1304700000001
  0
LINE
  8
_0-2_LAYER1
  6
CONTINUOUS
 62
    1
 10
7145.560778
 20
5737.1304700000001
 11
7445.560778
 21
5737.1304700000001
  0
TEXT
  8
_0-2_LAYER1
 62
    7
 10
7243.060778
 20
5757.1304700000001
 40
140
 41
0.8
 50
0
  1
30
  0
LINE
  8
_0-2_LAYER1
  6
CONTINUOUS
 62
    1
 10
7445.560778
 20
5737.1304700000001
 11
7445.560778
 21
5537.1304700000001
  0
LINE
  8
_0-2_LAYER1
  6
CONTINUOUS
 62
    1
 10
7945.560778
 20
5737.1304700000001
 11
7945.560778
 21
5537.1304700000001
  0
LINE
  8
_0-2_LAYER1
  6
CONTINUOUS
 62
    1
 10
7445.560778
 20
5737.1304700000001
 11
7945.560778
 21
5737.1304700000001
  0
TEXT
  8
_0-2_LAYER1
 62
    7
 10
7643.060778
 20
5757.1304700000001
 40
140
 41
0.8
 50
0
  1
50
  0
LINE
  8
_0-2_LAYER1
  6
CONTINUOUS
 62
    1
 10
7945.560778
 20
5737.1304700000001
 11
7945.560778
 21
5537.1304700000001
  0
LINE
  8
_0-2_LAYER1
  6
CONTINUOUS
 62
    1
 10
8245.5607779999991
 20
5737.1304700000001
 11
8245.5607779999991
 21
5537.1304700000001
  0
LINE
  8
_0-2_LAYER1
  6
CONTINUOUS
 62
    1
 10
7945.560778
 20
5737.1304700000001
 11
8245.5607779999991
 21
5737.1304700000001
  0
TEXT
  8
_0-2_LAYER1
 62
    7
 10
8043.060778
 20
5757.1304700000001
 40
140
 41
0.8
 50
0
  1
30
  0
LINE
  8
_0-2_LAYER1
  6
CONTINUOUS
 62
    1
 10
8245.5607779999991
 20
5737.1304700000001
 11
8245.5607779999991
 21
5537.1304700000001
  0
LINE
  8
_0-2_LAYER1
  6
CONTINUOUS
 62
    1
 10
8745.5607779999991
 20
5737.1304700000001
 11
8745.5607779999991
 21
5537.1304700000001
  0
LINE
  8
_0-2_LAYER1
  6
CONTINUOUS
 62
    1
 10
8245.5607779999991
 20
5737.1304700000001
 11
8745.5607779999991
 21
5737.1304700000001
  0
TEXT
  8
_0-2_LAYER1
 62
    7
 10
8443.0607779999991
 20
5757.1304700000001
 40
140
 41
0.8
 50
0
  1
50
  0
LINE
  8
_0-2_LAYER1
  6
CONTINUOUS
 62
    1
 10
8745.5607779999991
 20
5737.1304700000001
 11
8745.5607779999991
 21
5537.1304700000001
  0
LINE
  8
_0-2_LAYER1
  6
CONTINUOUS
 62
    1
 10
9045.5607779999991
 20
5737.1304700000001
 11
9045.5607779999991
 21
5537.1304700000001
  0
LINE
  8
_0-2_LAYER1
  6
CONTINUOUS
 62
    1
 10
8745.5607779999991
 20
5737.1304700000001
 11
9045.5607779999991
 21
5737.1304700000001
  0
TEXT
  8
_0-2_LAYER1
 62
    7
 10
8843.0607779999991
 20
5757.1304700000001
 40
140
 41
0.8
 50
0
  1
30
  0
LINE
  8
_0-2_LAYER1
  6
CONTINUOUS
 62
    1
 10
9045.5607779999991
 20
5737.1304700000001
 11
9045.5607779999991
 21
5537.1304700000001
  0
LINE
  8
_0-2_LAYER1
  6
CONTINUOUS
 62
    1
 10
9545.5607779999991
 20
5737.1304700000001
 11
9545.5607779999991
 21
5537.1304700000001
  0
LINE
  8
_0-2_LAYER1
  6
CONTINUOUS
 62
    1
 10
9045.5607779999991
 20
5737.1304700000001
 11
9545.5607779999991
 21
5737.1304700000001
  0
TEXT
  8
_0-2_LAYER1
 62
    7
 10
9243.0607779999991
 20
5757.1304700000001
 40
140
 41
0.8
 50
0
  1
50
  0
LINE
  8
_0-2_LAYER1
  6
CONTINUOUS
 62
    1
 10
9545.5607779999991
 20
5737.1304700000001
 11
9545.5607779999991
 21
5537.1304700000001
  0
LINE
  8
_0-2_LAYER1
  6
CONTINUOUS
 62
    1
 10
9845.5607779999991
 20
5737.1304700000001
 11
9845.5607779999991
 21
5537.1304700000001
  0
LINE
  8
_0-2_LAYER1
  6
CONTINUOUS
 62
    1
 10
9545.5607779999991
 20
5737.1304700000001
 11
9845.5607779999991
 21
5737.1304700000001
  0
TEXT
  8
_0-2_LAYER1
 62
    7
 10
9643.0607779999991
 20
5757.1304700000001
 40
140
 41
0.8
 50
0
  1
30
  0
LINE
  8
_0-2_LAYER1
  6
CONTINUOUS
 62
    1
 10
9845.5607779999991
 20
5737.1304700000001
 11
9845.5607779999991
 21
5537.1304700000001
  0
LINE
  8
_0-2_LAYER1
  6
CONTINUOUS
 62
    1
 10
10345.560777999999
 20
5737.1304700000001
 11
10345.560777999999
 21
5537.1304700000001
  0
LINE
  8
_0-2_LAYER1
  6
CONTINUOUS
 62
    1
 10
9845.5607779999991
 20
5737.1304700000001
 11
10345.560777999999
 21
5737.1304700000001
  0
TEXT
  8
_0-2_LAYER1
 62
    7
 10
10043.060777999999
 20
5757.1304700000001
 40
140
 41
0.8
 50
0
  1
50
  0
LINE
  8
_0-2_LAYER1
  6
CONTINUOUS
 62
    1
 10
10345.560777999999
 20
5737.1304700000001
 11
10345.560777999999
 21
5537.1304700000001
  0
LINE
  8
_0-2_LAYER1
  6
CONTINUOUS
 62
    1
 10
10645.560777999999
 20
5737.1304700000001
 11
10645.560777999999
 21
5537.1304700000001
  0
LINE
  8
_0-2_LAYER1
  6
CONTINUOUS
 62
    1
 10
10345.560777999999
 20
5737.1304700000001
 11
10645.560777999999
 21
5737.1304700000001
  0
TEXT
  8
_0-2_LAYER1
 62
    7
 10
10443.060777999999
 20
5757.1304700000001
 40
140
 41
0.8
 50
0
  1
30
  0
LINE
  8
_0-2_LAYER1
  6
CONTINUOUS
 62
    1
 10
10645.560777999999
 20
5737.1304700000001
 11
10645.560777999999
 21
5537.1304700000001
  0
LINE
  8
_0-2_LAYER1
  6
CONTINUOUS
 62
    1
 10
11145.560777999999
 20
5737.1304700000001
 11
11145.560777999999
 21
5537.1304700000001
  0
LINE
  8
_0-2_LAYER1
  6
CONTINUOUS
 62
    1
 10
10645.560777999999
 20
5737.1304700000001
 11
11145.560777999999
 21
5737.1304700000001
  0
TEXT
  8
_0-2_LAYER1
 62
    7
 10
10843.060777999999
 20
5757.1304700000001
 40
140
 41
0.8
 50
0
  1
50
  0
LINE
  8
_0-2_LAYER1
  6
CONTINUOUS
 62
    1
 10
11145.560777999999
 20
5737.1304700000001
 11
11145.560777999999
 21
5537.1304700000001
  0
LINE
  8
_0-2_LAYER1
  6
CONTINUOUS
 62
    1
 10
11445.560777999999
 20
5737.1304700000001
 11
11445.560777999999
 21
5537.1304700000001
  0
LINE
  8
_0-2_LAYER1
  6
CONTINUOUS
 62
    1
 10
11145.560777999999
 20
5737.1304700000001
 11
11445.560777999999
 21
5737.1304700000001
  0
TEXT
  8
_0-2_LAYER1
 62
    7
 10
11243.060777999999
 20
5757.1304700000001
 40
140
 41
0.8
 50
0
  1
30
  0
LINE
  8
_0-2_LAYER1
  6
CONTINUOUS
 62
    1
 10
11445.560777999999
 20
5737.1304700000001
 11
11445.560777999999
 21
5537.1304700000001
  0
LINE
  8
_0-2_LAYER1
  6
CONTINUOUS
 62
    1
 10
11945.560777999999
 20
5737.1304700000001
 11
11945.560777999999
 21
5537.1304700000001
  0
LINE
  8
_0-2_LAYER1
  6
CONTINUOUS
 62
    1
 10
11445.560777999999
 20
5737.1304700000001
 11
11945.560777999999
 21
5737.1304700000001
  0
TEXT
  8
_0-2_LAYER1
 62
    7
 10
11643.060777999999
 20
5757.1304700000001
 40
140
 41
0.8
 50
0
  1
50
  0
LINE
  8
_0-2_LAYER1
  6
CONTINUOUS
 62
    1
 10
11945.560777999999
 20
5737.1304700000001
 11
11945.560777999999
 21
5537.1304700000001
  0
LINE
  8
_0-2_LAYER1
  6
CONTINUOUS
 62
    1
 10
12245.560777999999
 20
5737.1304700000001
 11
12245.560777999999
 21
5537.1304700000001
  0
LINE
  8
_0-2_LAYER1
  6
CONTINUOUS
 62
    1
 10
11945.560777999999
 20
5737.1304700000001
 11
12245.560777999999
 21
5737.1304700000001
  0
TEXT
  8
_0-2_LAYER1
 62
    7
 10
12043.060777999999
 20
5757.1304700000001
 40
140
 41
0.8
 50
0
  1
30
  0
LINE
  8
_0-2_LAYER1
  6
CONTINUOUS
 62
    1
 10
12245.560777999999
 20
5737.1304700000001
 11
12245.560777999999
 21
5537.1304700000001
  0
LINE
  8
_0-2_LAYER1
  6
CONTINUOUS
 62
    1
 10
12745.560777999999
 20
5737.1304700000001
 11
12745.560777999999
 21
5537.1304700000001
  0
LINE
  8
_0-2_LAYER1
  6
CONTINUOUS
 62
    1
 10
12245.560777999999
 20
5737.1304700000001
 11
12745.560777999999
 21
5737.1304700000001
  0
TEXT
  8
_0-2_LAYER1
 62
    7
 10
12443.060777999999
 20
5757.1304700000001
 40
140
 41
0.8
 50
0
  1
50
  0
LINE
  8
_0-2_LAYER1
  6
CONTINUOUS
 62
    1
 10
12745.560777999999
 20
5737.1304700000001
 11
12745.560777999999
 21
5537.1304700000001
  0
LINE
  8
_0-2_LAYER1
  6
CONTINUOUS
 62
    1
 10
13045.560777999999
 20
5737.1304700000001
 11
13045.560777999999
 21
5537.1304700000001
  0
LINE
  8
_0-2_LAYER1
  6
CONTINUOUS
 62
    1
 10
12745.560777999999
 20
5737.1304700000001
 11
13045.560777999999
 21
5737.1304700000001
  0
TEXT
  8
_0-2_LAYER1
 62
    7
 10
12843.060777999999
 20
5757.1304700000001
 40
140
 41
0.8
 50
0
  1
30
  0
LINE
  8
_0-2_LAYER1
  6
CONTINUOUS
 62
    1
 10
13045.560777999999
 20
5737.1304700000001
 11
13045.560777999999
 21
5537.1304700000001
  0
LINE
  8
_0-2_LAYER1
  6
CONTINUOUS
 62
    1
 10
13545.560777999999
 20
5737.1304700000001
 11
13545.560777999999
 21
5537.1304700000001
  0
LINE
  8
_0-2_LAYER1
  6
CONTINUOUS
 62
    1
 10
13045.560777999999
 20
5737.1304700000001
 11
13545.560777999999
 21
5737.1304700000001
  0
TEXT
  8
_0-2_LAYER1
 62
    7
 10
13243.060777999999
 20
5757.1304700000001
 40
140
 41
0.8
 50
0
  1
50
  0
LINE
  8
_0-2_LAYER1
  6
CONTINUOUS
 62
    1
 10
13545.560777999999
 20
5737.1304700000001
 11
13545.560777999999
 21
5537.1304700000001
  0
LINE
  8
_0-2_LAYER1
  6
CONTINUOUS
 62
    1
 10
13845.560777999999
 20
5737.1304700000001
 11
13845.560777999999
 21
5537.1304700000001
  0
LINE
  8
_0-2_LAYER1
  6
CONTINUOUS
 62
    1
 10
13545.560777999999
 20
5737.1304700000001
 11
13845.560777999999
 21
5737.1304700000001
  0
TEXT
  8
_0-2_LAYER1
 62
    7
 10
13643.060777999999
 20
5757.1304700000001
 40
140
 41
0.8
 50
0
  1
30
  0
LINE
  8
_0-2_LAYER1
  6
CONTINUOUS
 62
    1
 10
13845.560777999999
 20
5737.1304700000001
 11
13845.560777999999
 21
5537.1304700000001
  0
LINE
  8
_0-2_LAYER1
  6
CONTINUOUS
 62
    1
 10
14345.560777999999
 20
5737.1304700000001
 11
14345.560777999999
 21
5537.1304700000001
  0
LINE
  8
_0-2_LAYER1
  6
CONTINUOUS
 62
    1
 10
13845.560777999999
 20
5737.1304700000001
 11
14345.560777999999
 21
5737.1304700000001
  0
TEXT
  8
_0-2_LAYER1
 62
    7
 10
14043.060777999999
 20
5757.1304700000001
 40
140
 41
0.8
 50
0
  1
50
  0
LINE
  8
_0-2_LAYER1
  6
CONTINUOUS
 62
    1
 10
14345.560777999999
 20
5737.1304700000001
 11
14345.560777999999
 21
5537.1304700000001
  0
LINE
  8
_0-2_LAYER1
  6
CONTINUOUS
 62
    1
 10
14645.560777999999
 20
5737.1304700000001
 11
14645.560777999999
 21
5537.1304700000001
  0
LINE
  8
_0-2_LAYER1
  6
CONTINUOUS
 62
    1
 10
14345.560777999999
 20
5737.1304700000001
 11
14645.560777999999
 21
5737.1304700000001
  0
TEXT
  8
_0-2_LAYER1
 62
    7
 10
14443.060777999999
 20
5757.1304700000001
 40
140
 41
0.8
 50
0
  1
30
  0
LINE
  8
_0-2_LAYER1
  6
CONTINUOUS
 62
    1
 10
14645.560777999999
 20
5737.1304700000001
 11
14645.560777999999
 21
5537.1304700000001
  0
LINE
  8
_0-2_LAYER1
  6
CONTINUOUS
 62
    1
 10
15145.560777999999
 20
5737.1304700000001
 11
15145.560777999999
 21
5537.1304700000001
  0
LINE
  8
_0-2_LAYER1
  6
CONTINUOUS
 62
    1
 10
14645.560777999999
 20
5737.1304700000001
 11
15145.560777999999
 21
5737.1304700000001
  0
TEXT
  8
_0-2_LAYER1
 62
    7
 10
14843.060777999999
 20
5757.1304700000001
 40
140
 41
0.8
 50
0
  1
50
  0
LINE
  8
_0-2_LAYER1
  6
CONTINUOUS
 62
    1
 10
15145.560777999999
 20
5737.1304700000001
 11
15145.560777999999
 21
5537.1304700000001
  0
LINE
  8
_0-2_LAYER1
  6
CONTINUOUS
 62
    1
 10
15445.560777999999
 20
5737.1304700000001
 11
15445.560777999999
 21
5537.1304700000001
  0
LINE
  8
_0-2_LAYER1
  6
CONTINUOUS
 62
    1
 10
15145.560777999999
 20
5737.1304700000001
 11
15445.560777999999
 21
5737.1304700000001
  0
TEXT
  8
_0-2_LAYER1
 62
    7
 10
15243.060777999999
 20
5757.1304700000001
 40
140
 41
0.8
 50
0
  1
30
  0
LINE
  8
_0-2_LAYER1
  6
CONTINUOUS
 62
    1
 10
15445.560777999999
 20
5937.1304700000001
 11
15445.560777999999
 21
5737.1304700000001
  0
LINE
  8
_0-2_LAYER1
  6
CONTINUOUS
 62
    1
 10
6445.560778
 20
5937.1304700000001
 11
6445.560778
 21
5737.1304700000001
  0
LINE
  8
_0-2_LAYER1
  6
CONTINUOUS
 62
    1
 10
15445.560777999999
 20
5937.1304700000001
 11
6445.560778
 21
5937.1304700000001
  0
TEXT
  8
_0-2_LAYER1
 62
    7
 10
10866.810777999999
 20
5957.1304700000001
 40
140
 41
0.8
 50
-0.0000000000000143
  1
900
  0
LINE
  8
_0-2_LAYER1
  6
CONTINUOUS
 62
    1
 10
6484.560778
 20
2888.1304700000001
 11
6484.560778
 21
2688.1304700000001
  0
LINE
  8
_0-2_LAYER1
  6
CONTINUOUS
 62
    1
 10
6734.560778
 20
2888.1304700000001
 11
6734.560778
 21
2688.1304700000001
  0
LINE
  8
_0-2_LAYER1
  6
CONTINUOUS
 62
    1
 10
6484.560778
 20
2888.1304700000001
 11
6734.560778
 21
2888.1304700000001
  0
TEXT
  8
_0-2_LAYER1
 62
    7
 10
6557.060778
 20
2908.1304700000001
 40
140
 41
0.8
 50
0
  1
25
  0
LINE
  8
_0-2_LAYER1
  6
CONTINUOUS
 62
    1
 10
6734.560778
 20
2888.1304700000001
 11
6734.560778
 21
2688.1304700000001
  0
LINE
  8
_0-2_LAYER1
  6
CONTINUOUS
 62
    1
 10
7234.560778
 20
2888.1304700000001
 11
7234.560778
 21
2688.1304700000001
  0
LINE
  8
_0-2_LAYER1
  6
CONTINUOUS
 62
    1
 10
6734.560778
 20
2888.1304700000001
 11
7234.560778
 21
2888.1304700000001
  0
TEXT
  8
_0-2_LAYER1
 62
    7
 10
6932.060778
 20
2908.1304700000001
 40
140
 41
0.8
 50
0
  1
50
  0
LINE
  8
_0-2_LAYER1
  6
CONTINUOUS
 62
    1
 10
7234.560778
 20
2888.1304700000001
 11
7234.560778
 21
2688.1304700000001
  0
LINE
  8
_0-2_LAYER1
  6
CONTINUOUS
 62
    1
 10
7534.560778
 20
2888.1304700000001
 11
7534.560778
 21
2688.1304700000001
  0
LINE
  8
_0-2_LAYER1
  6
CONTINUOUS
 62
    1
 10
7234.560778
 20
2888.1304700000001
 11
7534.560778
 21
2888.1304700000001
  0
TEXT
  8
_0-2_LAYER1
 62
    7
 10
7332.060778
 20
2908.1304700000001
 40
140
 41
0.8
 50
0
  1
30
  0
LINE
  8
_0-2_LAYER1
  6
CONTINUOUS
 62
    1
 10
7534.560778
 20
2888.1304700000001
 11
7534.560778
 21
2688.1304700000001
  0
LINE
  8
_0-2_LAYER1
  6
CONTINUOUS
 62
    1
 10
8034.560778
 20
2888.1304700000001
 11
8034.560778
 21
2688.1304700000001
  0
LINE
  8
_0-2_LAYER1
  6
CONTINUOUS
 62
    1
 10
7534.560778
 20
2888.1304700000001
 11
8034.560778
 21
2888.1304700000001
  0
TEXT
  8
_0-2_LAYER1
 62
    7
 10
7732.060778
 20
2908.1304700000001
 40
140
 41
0.8
 50
0
  1
50
  0
LINE
  8
_0-2_LAYER1
  6
CONTINUOUS
 62
    1
 10
8034.560778
 20
2888.1304700000001
 11
8034.560778
 21
2688.1304700000001
  0
LINE
  8
_0-2_LAYER1
  6
CONTINUOUS
 62
    1
 10
8334.5607779999991
 20
2888.1304700000001
 11
8334.5607779999991
 21
2688.1304700000001
  0
LINE
  8
_0-2_LAYER1
  6
CONTINUOUS
 62
    1
 10
8034.560778
 20
2888.1304700000001
 11
8334.5607779999991
 21
2888.1304700000001
  0
TEXT
  8
_0-2_LAYER1
 62
    7
 10
8132.060778
 20
2908.1304700000001
 40
140
 41
0.8
 50
0
  1
30
  0
LINE
  8
_0-2_LAYER1
  6
CONTINUOUS
 62
    1
 10
8334.5607779999991
 20
2888.1304700000001
 11
8334.5607779999991
 21
2688.1304700000001
  0
LINE
  8
_0-2_LAYER1
  6
CONTINUOUS
 62
    1
 10
8834.5607779999991
 20
2888.1304700000001
 11
8834.5607779999991
 21
2688.1304700000001
  0
LINE
  8
_0-2_LAYER1
  6
CONTINUOUS
 62
    1
 10
8334.5607779999991
 20
2888.1304700000001
 11
8834.5607779999991
 21
2888.1304700000001
  0
TEXT
  8
_0-2_LAYER1
 62
    7
 10
8532.0607779999991
 20
2908.1304700000001
 40
140
 41
0.8
 50
0
  1
50
  0
LINE
  8
_0-2_LAYER1
  6
CONTINUOUS
 62
    1
 10
8834.5607779999991
 20
2888.1304700000001
 11
8834.5607779999991
 21
2688.1304700000001
  0
LINE
  8
_0-2_LAYER1
  6
CONTINUOUS
 62
    1
 10
9134.5607779999991
 20
2888.1304700000001
 11
9134.5607779999991
 21
2688.1304700000001
  0
LINE
  8
_0-2_LAYER1
  6
CONTINUOUS
 62
    1
 10
8834.5607779999991
 20
2888.1304700000001
 11
9134.5607779999991
 21
2888.1304700000001
  0
TEXT
  8
_0-2_LAYER1
 62
    7
 10
8932.0607779999991
 20
2908.1304700000001
 40
140
 41
0.8
 50
0
  1
30
  0
LINE
  8
_0-2_LAYER1
  6
CONTINUOUS
 62
    1
 10
9134.5607779999991
 20
2888.1304700000001
 11
9134.5607779999991
 21
2688.1304700000001
  0
LINE
  8
_0-2_LAYER1
  6
CONTINUOUS
 62
    1
 10
9634.5607779999991
 20
2888.1304700000001
 11
9634.5607779999991
 21
2688.1304700000001
  0
LINE
  8
_0-2_LAYER1
  6
CONTINUOUS
 62
    1
 10
9134.5607779999991
 20
2888.1304700000001
 11
9634.5607779999991
 21
2888.1304700000001
  0
TEXT
  8
_0-2_LAYER1
 62
    7
 10
9332.0607779999991
 20
2908.1304700000001
 40
140
 41
0.8
 50
0
  1
50
  0
LINE
  8
_0-2_LAYER1
  6
CONTINUOUS
 62
    1
 10
9634.5607779999991
 20
2888.1304700000001
 11
9634.5607779999991
 21
2688.1304700000001
  0
LINE
  8
_0-2_LAYER1
  6
CONTINUOUS
 62
    1
 10
9934.5607779999991
 20
2888.1304700000001
 11
9934.5607779999991
 21
2688.1304700000001
  0
LINE
  8
_0-2_LAYER1
  6
CONTINUOUS
 62
    1
 10
9634.5607779999991
 20
2888.1304700000001
 11
9934.5607779999991
 21
2888.1304700000001
  0
TEXT
  8
_0-2_LAYER1
 62
    7
 10
9732.0607779999991
 20
2908.1304700000001
 40
140
 41
0.8
 50
0
  1
30
  0
LINE
  8
_0-2_LAYER1
  6
CONTINUOUS
 62
    1
 10
9934.5607779999991
 20
2888.1304700000001
 11
9934.5607779999991
 21
2688.1304700000001
  0
LINE
  8
_0-2_LAYER1
  6
CONTINUOUS
 62
    1
 10
10434.560777999999
 20
2888.1304700000001
 11
10434.560777999999
 21
2688.1304700000001
  0
LINE
  8
_0-2_LAYER1
  6
CONTINUOUS
 62
    1
 10
9934.5607779999991
 20
2888.1304700000001
 11
10434.560777999999
 21
2888.1304700000001
  0
TEXT
  8
_0-2_LAYER1
 62
    7
 10
10132.060777999999
 20
2908.1304700000001
 40
140
 41
0.8
 50
0
  1
50
  0
LINE
  8
_0-2_LAYER1
  6
CONTINUOUS
 62
    1
 10
10434.560777999999
 20
2888.1304700000001
 11
10434.560777999999
 21
2688.1304700000001
  0
LINE
  8
_0-2_LAYER1
  6
CONTINUOUS
 62
    1
 10
10734.560777999999
 20
2888.1304700000001
 11
10734.560777999999
 21
2688.1304700000001
  0
LINE
  8
_0-2_LAYER1
  6
CONTINUOUS
 62
    1
 10
10434.560777999999
 20
2888.1304700000001
 11
10734.560777999999
 21
2888.1304700000001
  0
TEXT
  8
_0-2_LAYER1
 62
    7
 10
10532.060777999999
 20
2908.1304700000001
 40
140
 41
0.8
 50
0
  1
30
  0
LINE
  8
_0-2_LAYER1
  6
CONTINUOUS
 62
    1
 10
10734.560777999999
 20
2888.1304700000001
 11
10734.560777999999
 21
2688.1304700000001
  0
LINE
  8
_0-2_LAYER1
  6
CONTINUOUS
 62
    1
 10
11234.560777999999
 20
2888.1304700000001
 11
11234.560777999999
 21
2688.1304700000001
  0
LINE
  8
_0-2_LAYER1
  6
CONTINUOUS
 62
    1
 10
10734.560777999999
 20
2888.1304700000001
 11
11234.560777999999
 21
2888.1304700000001
  0
TEXT
  8
_0-2_LAYER1
 62
    7
 10
10932.060777999999
 20
2908.1304700000001
 40
140
 41
0.8
 50
0
  1
50
  0
LINE
  8
_0-2_LAYER1
  6
CONTINUOUS
 62
    1
 10
11234.560777999999
 20
2888.1304700000001
 11
11234.560777999999
 21
2688.1304700000001
  0
LINE
  8
_0-2_LAYER1
  6
CONTINUOUS
 62
    1
 10
11534.560777999999
 20
2888.1304700000001
 11
11534.560777999999
 21
2688.1304700000001
  0
LINE
  8
_0-2_LAYER1
  6
CONTINUOUS
 62
    1
 10
11234.560777999999
 20
2888.1304700000001
 11
11534.560777999999
 21
2888.1304700000001
  0
TEXT
  8
_0-2_LAYER1
 62
    7
 10
11332.060777999999
 20
2908.1304700000001
 40
140
 41
0.8
 50
0
  1
30
  0
LINE
  8
_0-2_LAYER1
  6
CONTINUOUS
 62
    1
 10
11534.560777999999
 20
2888.1304700000001
 11
11534.560777999999
 21
2688.1304700000001
  0
LINE
  8
_0-2_LAYER1
  6
CONTINUOUS
 62
    1
 10
12034.560777999999
 20
2888.1304700000001
 11
12034.560777999999
 21
2688.1304700000001
  0
LINE
  8
_0-2_LAYER1
  6
CONTINUOUS
 62
    1
 10
11534.560777999999
 20
2888.1304700000001
 11
12034.560777999999
 21
2888.1304700000001
  0
TEXT
  8
_0-2_LAYER1
 62
    7
 10
11732.060777999999
 20
2908.1304700000001
 40
140
 41
0.8
 50
0
  1
50
  0
LINE
  8
_0-2_LAYER1
  6
CONTINUOUS
 62
    1
 10
12034.560777999999
 20
2888.1304700000001
 11
12034.560777999999
 21
2688.1304700000001
  0
LINE
  8
_0-2_LAYER1
  6
CONTINUOUS
 62
    1
 10
12334.560777999999
 20
2888.1304700000001
 11
12334.560777999999
 21
2688.1304700000001
  0
LINE
  8
_0-2_LAYER1
  6
CONTINUOUS
 62
    1
 10
12034.560777999999
 20
2888.1304700000001
 11
12334.560777999999
 21
2888.1304700000001
  0
TEXT
  8
_0-2_LAYER1
 62
    7
 10
12132.060777999999
 20
2908.1304700000001
 40
140
 41
0.8
 50
0
  1
30
  0
LINE
  8
_0-2_LAYER1
  6
CONTINUOUS
 62
    1
 10
12334.560777999999
 20
2888.1304700000001
 11
12334.560777999999
 21
2688.1304700000001
  0
LINE
  8
_0-2_LAYER1
  6
CONTINUOUS
 62
    1
 10
12834.560777999999
 20
2888.1304700000001
 11
12834.560777999999
 21
2688.1304700000001
  0
LINE
  8
_0-2_LAYER1
  6
CONTINUOUS
 62
    1
 10
12334.560777999999
 20
2888.1304700000001
 11
12834.560777999999
 21
2888.1304700000001
  0
TEXT
  8
_0-2_LAYER1
 62
    7
 10
12532.060777999999
 20
2908.1304700000001
 40
140
 41
0.8
 50
0
  1
50
  0
LINE
  8
_0-2_LAYER1
  6
CONTINUOUS
 62
    1
 10
12834.560777999999
 20
2888.1304700000001
 11
12834.560777999999
 21
2688.1304700000001
  0
LINE
  8
_0-2_LAYER1
  6
CONTINUOUS
 62
    1
 10
13134.560777999999
 20
2888.1304700000001
 11
13134.560777999999
 21
2688.1304700000001
  0
LINE
  8
_0-2_LAYER1
  6
CONTINUOUS
 62
    1
 10
12834.560777999999
 20
2888.1304700000001
 11
13134.560777999999
 21
2888.1304700000001
  0
TEXT
  8
_0-2_LAYER1
 62
    7
 10
12932.060777999999
 20
2908.1304700000001
 40
140
 41
0.8
 50
0
  1
30
  0
LINE
  8
_0-2_LAYER1
  6
CONTINUOUS
 62
    1
 10
13134.560777999999
 20
2888.1304700000001
 11
13134.560777999999
 21
2688.1304700000001
  0
LINE
  8
_0-2_LAYER1
  6
CONTINUOUS
 62
    1
 10
13634.560777999999
 20
2888.1304700000001
 11
13634.560777999999
 21
2688.1304700000001
  0
LINE
  8
_0-2_LAYER1
  6
CONTINUOUS
 62
    1
 10
13134.560777999999
 20
2888.1304700000001
 11
13634.560777999999
 21
2888.1304700000001
  0
TEXT
  8
_0-2_LAYER1
 62
    7
 10
13332.060777999999
 20
2908.1304700000001
 40
140
 41
0.8
 50
0
  1
50
  0
LINE
  8
_0-2_LAYER1
  6
CONTINUOUS
 62
    1
 10
13634.560777999999
 20
2888.1304700000001
 11
13634.560777999999
 21
2688.1304700000001
  0
LINE
  8
_0-2_LAYER1
  6
CONTINUOUS
 62
    1
 10
13934.560777999999
 20
2888.1304700000001
 11
13934.560777999999
 21
2688.1304700000001
  0
LINE
  8
_0-2_LAYER1
  6
CONTINUOUS
 62
    1
 10
13634.560777999999
 20
2888.1304700000001
 11
13934.560777999999
 21
2888.1304700000001
  0
TEXT
  8
_0-2_LAYER1
 62
    7
 10
13732.060777999999
 20
2908.1304700000001
 40
140
 41
0.8
 50
0
  1
30
  0
LINE
  8
_0-2_LAYER1
  6
CONTINUOUS
 62
    1
 10
13934.560777999999
 20
2888.1304700000001
 11
13934.560777999999
 21
2688.1304700000001
  0
LINE
  8
_0-2_LAYER1
  6
CONTINUOUS
 62
    1
 10
14434.560777999999
 20
2888.1304700000001
 11
14434.560777999999
 21
2688.1304700000001
  0
LINE
  8
_0-2_LAYER1
  6
CONTINUOUS
 62
    1
 10
13934.560777999999
 20
2888.1304700000001
 11
14434.560777999999
 21
2888.1304700000001
  0
TEXT
  8
_0-2_LAYER1
 62
    7
 10
14132.060777999999
 20
2908.1304700000001
 40
140
 41
0.8
 50
0
  1
50
  0
LINE
  8
_0-2_LAYER1
  6
CONTINUOUS
 62
    1
 10
14434.560777999999
 20
2888.1304700000001
 11
14434.560777999999
 21
2688.1304700000001
  0
LINE
  8
_0-2_LAYER1
  6
CONTINUOUS
 62
    1
 10
14734.560777999999
 20
2888.1304700000001
 11
14734.560777999999
 21
2688.1304700000001
  0
LINE
  8
_0-2_LAYER1
  6
CONTINUOUS
 62
    1
 10
14434.560777999999
 20
2888.1304700000001
 11
14734.560777999999
 21
2888.1304700000001
  0
TEXT
  8
_0-2_LAYER1
 62
    7
 10
14532.060777999999
 20
2908.1304700000001
 40
140
 41
0.8
 50
0
  1
30
  0
LINE
  8
_0-2_LAYER1
  6
CONTINUOUS
 62
    1
 10
14734.560777999999
 20
2888.1304700000001
 11
14734.560777999999
 21
2688.1304700000001
  0
LINE
  8
_0-2_LAYER1
  6
CONTINUOUS
 62
    1
 10
15234.560777999999
 20
2888.1304700000001
 11
15234.560777999999
 21
2688.1304700000001
  0
LINE
  8
_0-2_LAYER1
  6
CONTINUOUS
 62
    1
 10
14734.560777999999
 20
2888.1304700000001
 11
15234.560777999999
 21
2888.1304700000001
  0
TEXT
  8
_0-2_LAYER1
 62
    7
 10
14932.060777999999
 20
2908.1304700000001
 40
140
 41
0.8
 50
0
  1
50
  0
LINE
  8
_0-2_LAYER1
  6
CONTINUOUS
 62
    1
 10
15234.560777999999
 20
2888.1304700000001
 11
15234.560777999999
 21
2688.1304700000001
  0
LINE
  8
_0-2_LAYER1
  6
CONTINUOUS
 62
    1
 10
15484.560777999999
 20
2888.1304700000001
 11
15484.560777999999
 21
2688.1304700000001
  0
LINE
  8
_0-2_LAYER1
  6
CONTINUOUS
 62
    1
 10
15234.560777999999
 20
2888.1304700000001
 11
15484.560777999999
 21
2888.1304700000001
  0
TEXT
  8
_0-2_LAYER1
 62
    7
 10
15307.060777999999
 20
2908.1304700000001
 40
140
 41
0.8
 50
0
  1
25
  0
LINE
  8
_0-2_LAYER1
  6
CONTINUOUS
 62
    1
 10
15484.560777999999
 20
3088.1304700000001
 11
15484.560777999999
 21
2888.1304700000001
  0
LINE
  8
_0-2_LAYER1
  6
CONTINUOUS
 62
    1
 10
6484.560778
 20
3088.1304700000001
 11
6484.560778
 21
2888.1304700000001
  0
LINE
  8
_0-2_LAYER1
  6
CONTINUOUS
 62
    1
 10
15484.560777999999
 20
3088.1304700000001
 11
6484.560778
 21
3088.1304700000001
  0
TEXT
  8
_0-2_LAYER1
 62
    7
 10
10905.810777999999
 20
3108.1304700000001
 40
140
 41
0.8
 50
0
  1
900
  0
LINE
  8
_0-2_LAYER1
  6
CONTINUOUS
 62
    1
 10
400
 20
400
 11
400
 21
11480
  0
LINE
  8
_0-2_LAYER1
  6
CONTINUOUS
 62
    1
 10
400
 20
11480
 11
16400
 21
11480
  0
LINE
  8
_0-2_LAYER1
  6
CONTINUOUS
 62
    1
 10
16400
 20
11480
 11
16400
 21
400
  0
LINE
  8
_0-2_LAYER1
  6
CONTINUOUS
 62
    1
 10
16400
 20
400
 11
400
 21
400
  0
LINE
  8
_0-2_LAYER1
  6
DASHED
 62
    3
 10
3927.060778
 20
7427.1304700000001
 11
3927.060778
 21
7619.1304700000001
  0
LINE
  8
_0-2_LAYER1
  6
DASHED
 62
    3
 10
3923.060778
 20
7619.1304700000001
 11
3923.060778
 21
7427.1304700000001
  0
LINE
  8
_0-2_LAYER1
  6
DASHED
 62
    3
 10
3708.060778
 20
7619.1304700000001
 11
3708.060778
 21
7427.1304700000001
  0
LINE
  8
_0-2_LAYER1
  6
DASHED
 62
    3
 10
3704.060778
 20
7427.1304700000001
 11
3704.060778
 21
7619.1304700000001
  0
LINE
  8
_0-2_LAYER1
  6
CONTINUOUS
 62
    3
 10
3708.060778
 20
7427.1304700000001
 11
3708.060778
 21
6971.3239899999999
  0
LINE
  8
_0-2_LAYER1
  6
CONTINUOUS
 62
    3
 10
4041.560778
 20
7828.1304700000001
 11
4041.560778
 21
7635.1304700000001
  0
LINE
  8
_0-2_LAYER1
  6
CONTINUOUS
 62
    3
 10
3589.560778
 20
7828.1304700000001
 11
3589.560778
 21
7635.1304700000001
  0
LINE
  8
_0-2_LAYER1
  6
CONTINUOUS
 62
    3
 10
3585.560778
 20
7828.1304700000001
 11
3589.560778
 21
7828.1304700000001
  0
LINE
  8
_0-2_LAYER1
  6
CONTINUOUS
 62
    3
 10
4041.560778
 20
7828.1304700000001
 11
4045.560778
 21
7828.1304700000001
  0
LINE
  8
_0-2_LAYER1
  6
CONTINUOUS
 62
    3
 10
3581.560778
 20
7824.1304700000001
 11
3585.560778
 21
7824.1304700000001
  0
LINE
  8
_0-2_LAYER1
  6
CONTINUOUS
 62
    3
 10
4045.560778
 20
7824.1304700000001
 11
4049.560778
 21
7824.1304700000001
  0
LINE
  8
_0-2_LAYER1
  6
CONTINUOUS
 62
    3
 10
4037.560778
 20
7627.1304700000001
 11
3593.560778
 21
7627.1304700000001
  0
LINE
  8
_0-2_LAYER1
  6
CONTINUOUS
 62
    3
 10
4037.560778
 20
7631.1304700000001
 11
3593.560778
 21
7631.1304700000001
  0
LINE
  8
_0-2_LAYER1
  6
CONTINUOUS
 62
    3
 10
4045.560778
 20
7828.1304700000001
 11
4045.560778
 21
7635.1304700000001
  0
LINE
  8
_0-2_LAYER1
  6
CONTINUOUS
 62
    3
 10
3585.560778
 20
7828.1304700000001
 11
3585.560778
 21
7635.1304700000001
  0
LINE
  8
_0-2_LAYER1
  6
CONTINUOUS
 62
    3
 10
4049.560778
 20
7824.1304700000001
 11
4049.560778
 21
7635.1304700000001
  0
LINE
  8
_0-2_LAYER1
  6
CONTINUOUS
 62
    3
 10
3581.560778
 20
7824.1304700000001
 11
3581.560778
 21
7635.1304700000001
  0
ARC
  8
_0-2_LAYER1
  6
CONTINUOUS
 62
    3
 10
3593.560778
 20
7635.1304700000001
 40
12
 50
180
 51
270
  0
LINE
  8
_0-2_LAYER1
  6
CONTINUOUS
 62
    3
 10
3923.060778
 20
7427.1304700000001
 11
3923.060778
 21
6971.3239899999999
  0
LINE
  8
_0-2_LAYER1
  6
CONTINUOUS
 62
    3
 10
3927.060778
 20
7127.1304700000001
 11
3927.060778
 21
6971.3239899999999
  0
LINE
  8
_0-2_LAYER1
  6
CONTINUOUS
 62
    3
 10
3927.060778
 20
7127.1304700000001
 11
3927.060778
 21
7427.1304700000001
  0
LINE
  8
_0-2_LAYER1
  6
CONTINUOUS
 62
    3
 10
3704.060778
 20
7427.1304700000001
 11
3704.060778
 21
6971.3239899999999
  0
LINE
  8
_0-2_LAYER1
  6
CONTINUOUS
 62
    3
 10
3585.560778
 20
7552.279399
 11
3585.560778
 21
7116.0037840000005
  0
ARC
  8
_0-2_LAYER1
  6
CONTINUOUS
 62
    3
 10
3589.560778
 20
7552.279399
 40
4
 50
132.997467
 51
180
  0
LINE
  8
_0-2_LAYER1
  6
CONTINUOUS
 62
    3
 10
4049.560778
 20
7116.0037840000005
 11
4049.560778
 21
7552.2745409999989
  0
LINE
  8
_0-2_LAYER1
  6
CONTINUOUS
 62
    3
 10
3581.560778
 20
7552.279399
 11
3581.560778
 21
7116.0037840000005
  0
ARC
  8
_0-2_LAYER1
  6
CONTINUOUS
 62
    3
 10
3589.560778
 20
7552.279399
 40
8
 50
132.997467
 51
180
  0
LINE
  8
_0-2_LAYER1
  6
CONTINUOUS
 62
    3
 10
3919.060778
 20
7623.1304700000001
 11
3712.060778
 21
7623.1304700000001
  0
ARC
  8
_0-2_LAYER1
  6
CONTINUOUS
 62
    3
 10
4037.560778
 20
7635.1304700000001
 40
4
 50
270
 51
0
  0
ARC
  8
_0-2_LAYER1
  6
CONTINUOUS
 62
    3
 10
4037.560778
 20
7635.1304700000001
 40
8
 50
270
 51
0
  0
LINE
  8
_0-2_LAYER1
  6
CONTINUOUS
 62
    3
 10
4025.560778
 20
7627.1304700000001
 11
4009.560778
 21
7627.1304700000001
  0
ARC
  8
_0-2_LAYER1
  6
CONTINUOUS
 62
    3
 10
3919.060778
 20
7619.1304700000001
 40
4
 50
0
 51
90
  0
ARC
  8
_0-2_LAYER1
  6
CONTINUOUS
 62
    3
 10
3712.060778
 20
7619.1304700000001
 40
4
 50
90
 51
180
  0
LINE
  8
_0-2_LAYER1
  6
CONTINUOUS
 62
    3
 10
3919.060778
 20
7627.1304700000001
 11
3712.060778
 21
7627.1304700000001
  0
ARC
  8
_0-2_LAYER1
  6
CONTINUOUS
 62
    3
 10
3919.060778
 20
7619.1304700000001
 40
8
 50
0
 51
90
  0
ARC
  8
_0-2_LAYER1
  6
CONTINUOUS
 62
    3
 10
3712.060778
 20
7619.1304700000001
 40
8
 50
90
 51
180
  0
ARC
  8
_0-2_LAYER1
  6
CONTINUOUS
 62
    3
 10
3593.560778
 20
7635.1304700000001
 40
8
 50
180
 51
270
  0
ARC
  8
_0-2_LAYER1
  6
CONTINUOUS
 62
    3
 10
3593.560778
 20
7635.1304700000001
 40
4
 50
180
 51
270
  0
LINE
  8
_0-2_LAYER1
  6
CONTINUOUS
 62
    3
 10
3611.560778
 20
7627.1304700000001
 11
3641.1156730000002
 21
7627.1304700000001
  0
LINE
  8
_0-2_LAYER1
  6
CONTINUOUS
 62
    3
 10
3250.9131860000002
 20
6740.6415189999998
 11
3579.3976440000006
 21
6910.4504870000001
  0
ARC
  8
_0-2_LAYER1
  6
CONTINUOUS
 62
    3
 10
3577.560778
 20
6914.0037840000005
 40
4
 50
297.33655599999997
 51
0.0000000000000254
  0
LINE
  8
_0-2_LAYER1
  6
CONTINUOUS
 62
    3
 10
3252.0180700000001
 20
6736.1787910000003
 11
3581.2223780000004
 21
6905.648698
  0
ARC
  8
_0-2_LAYER1
  6
CONTINUOUS
 62
    3
 10
3577.560778
 20
6912.7615519999999
 40
8
 50
297.23879499999998
 51
0
  0
LINE
  8
_0-2_LAYER1
  6
CONTINUOUS
 62
    3
 10
3254.2722100000001
 20
6732.8037960000001
 11
3250.9131860000002
 21
6740.6415189999998
  0
LINE
  8
_0-2_LAYER1
  6
CONTINUOUS
 62
    3
 10
4045.560778
 20
7552.2769700000008
 11
4045.560778
 21
7116.0037840000005
  0
LINE
  8
_0-2_LAYER1
  6
DASHED
 62
    3
 10
3585.560778
 20
6912.7615519999999
 11
3585.560778
 21
7116.0037840000005
  0
LINE
  8
_0-2_LAYER1
  6
DASHED
 62
    3
 10
3581.560778
 20
7116.0037840000005
 11
3581.560778
 21
6914.0037840000005
  0
CIRCLE
  8
_0-2_LAYER1
  6
CONTINUOUS
 62
    1
 10
3815.560778
 20
7020.1304700000001
 40
10
  0
LINE
  8
_0-2_LAYER1
  6
DASHED
 62
    1
 10
3927.3991779999997
 20
6964.2111370000002
 11
3815.560778
 21
7020.1304700000001
  0
LINE
  8
_0-2_LAYER1
  6
DASHED
 62
    1
 10
3703.7223780000004
 20
6964.2111370000002
 11
3815.560778
 21
7020.1304700000001
  0
LINE
  8
_0-2_LAYER1
  6
CONTINUOUS
 62
    1
 10
3591.560778
 20
8083.9570030000004
 11
3591.560778
 21
7923.4634800000003
  0
LINE
  8
_0-2_LAYER1
  6
CONTINUOUS
 62
    1
 10
4039.560778
 20
8083.9570030000004
 11
4039.560778
 21
7923.4634800000003
  0
LINE
  8
_0-2_LAYER1
  6
CONTINUOUS
 62
    1
 10
3591.560778
 20
8083.9570030000004
 11
4039.560778
 21
8083.9570030000004
  0
TEXT
  8
_0-2_LAYER1
 62
    7
 10
3763.060778
 20
8103.9570030000004
 40
140
 41
0.8
 50
0
  1
44
  0
LINE
  8
_0-2_LAYER1
  6
CONTINUOUS
 62
    1
 10
5012.2274450000004
 20
7828.1304700000001
 11
4110.3884930000004
 21
7828.1304700000001
  0
LINE
  8
_0-2_LAYER1
  6
CONTINUOUS
 62
    1
 10
5012.2274450000004
 20
7623.1304700000001
 11
5012.2274450000004
 21
7828.1304700000001
  0
TEXT
  8
_0-2_LAYER1
 62
    7
 10
4992.2274450000004
 20
7620.6304700000001
 40
140
 41
0.8
 50
90
  1
22.5
  0
LINE
  8
_0-2_LAYER1
  6
CONTINUOUS
 62
    3
 10
3647.560778
 20
7623.1304700000001
 11
3593.560778
 21
7623.1304700000001
  0
LINE
  8
_0-2_LAYER1
  6
CONTINUOUS
 62
    3
 10
3650.2886419999995
 20
7616.2049349999998
 11
3584.1050500000001
 21
7558.1304700000001
  0
ARC
  8
_0-2_LAYER1
  6
CONTINUOUS
 62
    3
 10
3647.560778
 20
7619.1304700000001
 40
4
 50
312.99746699999997
 51
89.999999999999929
  0
LINE
  8
_0-2_LAYER1
  6
CONTINUOUS
 62
    3
 10
3653.0165059999999
 20
7613.2793990000009
 11
3586.8329140000005
 21
7555.2049349999998
  0
ARC
  8
_0-2_LAYER1
  6
CONTINUOUS
 62
    3
 10
3647.560778
 20
7619.1304700000001
 40
8
 50
312.99746699999997
 51
89.999999999999929
  0
LINE
  8
_0-2_LAYER1
  6
CONTINUOUS
 62
    3
 10
3978.1050500000001
 20
7613.2793990000009
 11
4044.1990089999999
 21
7555.2835859999996
  0
ARC
  8
_0-2_LAYER1
  6
CONTINUOUS
 62
    3
 10
4041.560778
 20
7552.2769700000008
 40
4
 50
0
 51
48.733848999999999
  0
ARC
  8
_0-2_LAYER1
  6
CONTINUOUS
 62
    3
 10
3983.560778
 20
7619.1304700000001
 40
8
 50
90
 51
227.002533
  0
LINE
  8
_0-2_LAYER1
  6
CONTINUOUS
 62
    3
 10
3980.8329140000005
 20
7616.2049349999998
 11
4046.8372399999998
 21
7558.2877719999997
  0
ARC
  8
_0-2_LAYER1
  6
CONTINUOUS
 62
    3
 10
4041.560778
 20
7552.2745409999989
 40
8
 50
0
 51
48.733848999999999
  0
ARC
  8
_0-2_LAYER1
  6
CONTINUOUS
 62
    3
 10
3983.560778
 20
7619.1304700000001
 40
4
 50
90
 51
227.002533
  0
LINE
  8
_0-2_LAYER1
  6
CONTINUOUS
 62
    3
 10
3983.560778
 20
7623.1304700000001
 11
4037.560778
 21
7623.1304700000001
  0
ARC
  8
_0-2_LAYER1
  6
CONTINUOUS
 62
    3
 10
4037.560778
 20
7635.1304700000001
 40
12
 50
270
 51
0
  0
LINE
  8
_0-2_LAYER1
  6
CONTINUOUS
 62
    3
 10
3254.2573570000004
 20
6732.8326479999996
 11
3703.7223780000004
 21
6964.2111370000002
  0
ARC
  8
_0-2_LAYER1
  6
CONTINUOUS
 62
    3
 10
3700.060778
 20
6971.3239899999999
 40
8
 50
297.23879499999998
 51
0
  0
LINE
  8
_0-2_LAYER1
  6
CONTINUOUS
 62
    3
 10
3252.6790400000004
 20
6736.519049999999
 11
3701.8915780000007
 21
6967.7675639999998
  0
ARC
  8
_0-2_LAYER1
  6
CONTINUOUS
 62
    3
 10
3700.060778
 20
6971.3239899999999
 40
4
 50
297.23879499999998
 51
0
  0
LINE
  8
_0-2_LAYER1
  6
CONTINUOUS
 62
    3
 10
4378.4425160000001
 20
6736.519049999999
 11
3929.2299779999994
 21
6967.7675639999998
  0
ARC
  8
_0-2_LAYER1
  6
CONTINUOUS
 62
    3
 10
3931.060778
 20
6971.3239899999999
 40
4
 50
180
 51
242.76120500000002
  0
LINE
  8
_0-2_LAYER1
  6
CONTINUOUS
 62
    3
 10
4376.8641989999996
 20
6732.8326479999996
 11
3927.3991779999997
 21
6964.2111370000002
  0
ARC
  8
_0-2_LAYER1
  6
CONTINUOUS
 62
    3
 10
3931.060778
 20
6971.3239899999999
 40
8
 50
180
 51
242.76120500000002
  0
LINE
  8
_0-2_LAYER1
  6
CONTINUOUS
 62
    3
 10
4380.2083700000003
 20
6740.6415189999998
 11
4051.7239119999995
 21
6910.4504870000001
  0
ARC
  8
_0-2_LAYER1
  6
CONTINUOUS
 62
    3
 10
4053.560778
 20
6914.0037840000005
 40
4
 50
180
 51
242.663444
  0
LINE
  8
_0-2_LAYER1
  6
CONTINUOUS
 62
    3
 10
4379.103486
 20
6736.1787910000003
 11
4049.8991779999997
 21
6905.648698
  0
ARC
  8
_0-2_LAYER1
  6
CONTINUOUS
 62
    3
 10
4053.560778
 20
6912.7615519999999
 40
8
 50
180
 51
242.76120500000002
  0
LINE
  8
_0-2_LAYER1
  6
CONTINUOUS
 62
    3
 10
4376.849346
 20
6732.8037960000001
 11
4380.2083700000003
 21
6740.6415189999998
  0
LINE
  8
_0-2_LAYER1
  6
DASHED
 62
    3
 10
4049.560778
 20
7116.0037840000005
 11
4049.560778
 21
6914.0037840000005
  0
LINE
  8
_0-2_LAYER1
  6
DASHED
 62
    3
 10
4045.560778
 20
6912.7615519999999
 11
4045.560778
 21
7116.0037840000005
  0
LINE
  8
_0-2_LAYER1
  6
CONTINUOUS
 62
    1
 10
3250.9131860000002
 20
6072.6457620000001
 11
3250.9131860000002
 21
6672.6457620000001
  0
LINE
  8
_0-2_LAYER1
  6
CONTINUOUS
 62
    1
 10
4380.2083700000003
 20
6072.6457620000001
 11
4380.2083700000003
 21
6672.6457620000001
  0
LINE
  8
_0-2_LAYER1
  6
CONTINUOUS
 62
    1
 10
3250.9131860000002
 20
6072.6457620000001
 11
4380.2083700000003
 21
6072.6457620000001
  0
TEXT
  8
_0-2_LAYER1
 62
    7
 10
3684.310778
 20
6092.6457620000001
 40
140
 41
0.8
 50
0
  1
117.4
  0
LINE
  8
_0-2_LAYER1
  6
CONTINUOUS
 62
    1
 10
3581.560778
 20
6272.6457620000001
 11
3581.560778
 21
6672.6457620000001
  0
LINE
  8
_0-2_LAYER1
  6
CONTINUOUS
 62
    1
 10
4049.560778
 20
6272.6457620000001
 11
4049.560778
 21
6672.6457620000001
  0
LINE
  8
_0-2_LAYER1
  6
CONTINUOUS
 62
    1
 10
3581.560778
 20
6272.6457620000001
 11
4049.560778
 21
6272.6457620000001
  0
TEXT
  8
_0-2_LAYER1
 62
    7
 10
3763.060778
 20
6292.6457620000001
 40
140
 41
0.8
 50
0
  1
46
  0
LINE
  8
_0-2_LAYER1
  6
CONTINUOUS
 62
    1
 10
3704.060778
 20
6472.6457620000001
 11
3704.060778
 21
6672.6457620000001
  0
LINE
  8
_0-2_LAYER1
  6
CONTINUOUS
 62
    1
 10
3927.060778
 20
6472.6457620000001
 11
3927.060778
 21
6672.6457620000001
  0
LINE
  8
_0-2_LAYER1
  6
CONTINUOUS
 62
    1
 10
3704.060778
 20
6472.6457620000001
 11
3927.060778
 21
6472.6457620000001
  0
TEXT
  8
_0-2_LAYER1
 62
    7
 10
3710.560778
 20
6492.6457620000001
 40
140
 41
0.8
 50
0
  1
22.3
  0
LINE
  8
_0-2_LAYER1
  6
CONTINUOUS
 62
    1
 10
6545.560778
 20
7558.2877719999997
 11
15345.560777999999
 21
7558.2877719999997
  0
LINE
  8
_0-2_LAYER1
  6
CONTINUOUS
 62
    1
 10
4494.716171
 20
7007.8263870000001
 11
4415.9323109999996
 21
6823.9973810000001
  0
LINE
  8
_0-2_LAYER1
  6
CONTINUOUS
 62
    1
 10
4150.4828180000004
 20
7155.3549670000011
 11
4071.6989579999999
 21
6971.5259609999994
  0
LINE
  8
_0-2_LAYER1
  6
CONTINUOUS
 62
    1
 10
4494.716171
 20
7007.8263870000001
 11
4150.4828180000004
 21
7155.3549670000011
  0
TEXT
  8
_0-2_LAYER1
 62
    7
 10
4282.2227480000001
 20
7120.6543579999998
 40
140
 41
0.8
 50
-23.198600000000049
  1
40
  0
LINE
  8
_0-2_LAYER1
  6
CONTINUOUS
 62
    1
 10
5012.2274450000004
 20
7020.1304700000001
 11
3861.7053999999998
 21
7020.1304700000001
  0
LINE
  8
_0-2_LAYER1
  6
CONTINUOUS
 62
    1
 10
5012.2274450000004
 20
7623.1304700000001
 11
4110.3884930000004
 21
7623.1304700000001
  0
LINE
  8
_0-2_LAYER1
  6
CONTINUOUS
 62
    1
 10
5012.2274450000004
 20
7020.1304700000001
 11
5012.2274450000004
 21
7623.1304700000001
  0
TEXT
  8
_0-2_LAYER1
 62
    7
 10
4992.2274450000004
 20
7269.1304700000001
 40
140
 41
0.8
 50
90
  1
60
  0
LINE
  8
_0-2_LAYER1
  6
CONTINUOUS
 62
    1
 10
15484.560777999999
 20
1879.1304700000001
 11
6484.560778
 21
1879.1304700000001
  0
LINE
  8
_0-2_LAYER1
  6
CONTINUOUS
 62
    1
 10
6467.5607779999991
 20
3675.1304700000001
 11
15467.560777999999
 21
3675.1304700000001
  0
ARC
  8
_0-2_LAYER1
  6
CONTINUOUS
 62
    1
 10
10967.560777999999
 20
3685.1304700000001
 40
110
 50
56.038573999999997
 51
123.96142600000002
  0
ARC
  8
_0-2_LAYER1
  6
CONTINUOUS
 62
    1
 10
10717.560777999999
 20
3785.1304700000001
 40
110
 50
236.03857400000004
 51
303.96142600000002
  0
ARC
  8
_0-2_LAYER1
  6
CONTINUOUS
 62
    1
 10
10467.560777999999
 20
3665.1304700000001
 40
110
 50
56.038573999999997
 51
123.96142600000002
  0
ARC
  8
_0-2_LAYER1
  6
CONTINUOUS
 62
    1
 10
10217.560777999999
 20
3785.1304700000001
 40
110
 50
236.03857400000004
 51
303.96142600000002
  0
LINE
  8
_0-2_LAYER1
  6
CONTINUOUS
 62
    1
 10
10279.010587000001
 20
3693.894945
 11
10406.110968999999
 21
3756.3659950000001
  0
LINE
  8
_0-2_LAYER1
  6
CONTINUOUS
 62
    1
 10
10529.010587000001
 20
3756.3659950000001
 11
10656.110968999999
 21
3692.3275469999999
  0
LINE
  8
_0-2_LAYER1
  6
CONTINUOUS
 62
    1
 10
10906.110968999999
 20
3776.3659950000001
 11
10779.010587000001
 21
3693.894945
  0
LINE
  8
_0-2_LAYER1
  6
CONTINUOUS
 62
    1
 10
10029.010587000001
 20
3776.3659950000001
 11
10156.110968999999
 21
3693.894945
  0
ARC
  8
_0-2_LAYER1
  6
CONTINUOUS
 62
    1
 10
9967.5607779999991
 20
3685.1304700000001
 40
110
 50
56.038573999999997
 51
123.96142600000002
  0
ARC
  8
_0-2_LAYER1
  6
CONTINUOUS
 62
    1
 10
8967.5607779999991
 20
3685.1304700000001
 40
110
 50
56.038573999999997
 51
123.96142600000002
  0
LINE
  8
_0-2_LAYER1
  6
CONTINUOUS
 62
    1
 10
9029.0105870000007
 20
3776.3659950000001
 11
9156.1109689999994
 21
3693.894945
  0
LINE
  8
_0-2_LAYER1
  6
CONTINUOUS
 62
    1
 10
9906.1109689999994
 20
3776.3659950000001
 11
9779.0105870000007
 21
3693.894945
  0
LINE
  8
_0-2_LAYER1
  6
CONTINUOUS
 62
    1
 10
9529.0105870000007
 20
3756.3659950000001
 11
9656.1109689999994
 21
3692.3275469999999
  0
LINE
  8
_0-2_LAYER1
  6
CONTINUOUS
 62
    1
 10
9279.0105870000007
 20
3693.894945
 11
9406.1109689999994
 21
3756.3659950000001
  0
ARC
  8
_0-2_LAYER1
  6
CONTINUOUS
 62
    1
 10
9217.5607779999991
 20
3785.1304700000001
 40
110
 50
236.03857400000004
 51
303.96142600000002
  0
ARC
  8
_0-2_LAYER1
  6
CONTINUOUS
 62
    1
 10
9467.5607779999991
 20
3665.1304700000001
 40
110
 50
56.038573999999997
 51
123.96142600000002
  0
ARC
  8
_0-2_LAYER1
  6
CONTINUOUS
 62
    1
 10
9717.5607779999991
 20
3785.1304700000001
 40
110
 50
236.03857400000004
 51
303.96142600000002
  0
ARC
  8
_0-2_LAYER1
  6
CONTINUOUS
 62
    1
 10
8717.5607779999991
 20
3785.1304700000001
 40
110
 50
236.03857400000004
 51
303.96142600000002
  0
ARC
  8
_0-2_LAYER1
  6
CONTINUOUS
 62
    1
 10
8467.5607779999991
 20
3665.1304700000001
 40
110
 50
56.038573999999997
 51
123.96142600000002
  0
ARC
  8
_0-2_LAYER1
  6
CONTINUOUS
 62
    1
 10
8217.5607779999991
 20
3785.1304700000001
 40
110
 50
236.03857400000004
 51
303.96142600000002
  0
LINE
  8
_0-2_LAYER1
  6
CONTINUOUS
 62
    1
 10
8279.0105870000007
 20
3693.894945
 11
8406.1109689999994
 21
3756.3659950000001
  0
LINE
  8
_0-2_LAYER1
  6
CONTINUOUS
 62
    1
 10
8529.0105870000007
 20
3756.3659950000001
 11
8656.1109689999994
 21
3692.3275469999999
  0
LINE
  8
_0-2_LAYER1
  6
CONTINUOUS
 62
    1
 10
8906.1109689999994
 20
3776.3659950000001
 11
8779.0105870000007
 21
3693.894945
  0
LINE
  8
_0-2_LAYER1
  6
CONTINUOUS
 62
    1
 10
8029.0105870000007
 20
3776.3659950000001
 11
8156.1109690000003
 21
3693.894945
  0
ARC
  8
_0-2_LAYER1
  6
CONTINUOUS
 62
    1
 10
7967.5607779999991
 20
3685.1304700000001
 40
110
 50
56.038573999999997
 51
123.96142600000002
  0
ARC
  8
_0-2_LAYER1
  6
CONTINUOUS
 62
    1
 10
6967.5607779999991
 20
3685.1304700000001
 40
110
 50
56.038573999999997
 51
123.96142600000002
  0
LINE
  8
_0-2_LAYER1
  6
CONTINUOUS
 62
    1
 10
7029.0105870000007
 20
3776.3659950000001
 11
7156.1109690000003
 21
3693.894945
  0
LINE
  8
_0-2_LAYER1
  6
CONTINUOUS
 62
    1
 10
7906.1109690000003
 20
3776.3659950000001
 11
7779.0105870000007
 21
3693.894945
  0
LINE
  8
_0-2_LAYER1
  6
CONTINUOUS
 62
    1
 10
7529.0105870000007
 20
3756.3659950000001
 11
7656.1109690000003
 21
3692.3275469999999
  0
LINE
  8
_0-2_LAYER1
  6
CONTINUOUS
 62
    1
 10
7279.0105870000007
 20
3693.894945
 11
7406.1109690000003
 21
3756.3659950000001
  0
ARC
  8
_0-2_LAYER1
  6
CONTINUOUS
 62
    1
 10
7217.5607779999991
 20
3785.1304700000001
 40
110
 50
236.03857400000004
 51
303.96142600000002
  0
ARC
  8
_0-2_LAYER1
  6
CONTINUOUS
 62
    1
 10
7467.5607779999991
 20
3665.1304700000001
 40
110
 50
56.038573999999997
 51
123.96142600000002
  0
ARC
  8
_0-2_LAYER1
  6
CONTINUOUS
 62
    1
 10
7717.5607779999991
 20
3785.1304700000001
 40
110
 50
236.03857400000004
 51
303.96142600000002
  0
ARC
  8
_0-2_LAYER1
  6
CONTINUOUS
 62
    1
 10
6717.5607779999991
 20
3785.1304700000001
 40
110
 50
270
 51
303.96142600000002
  0
LINE
  8
_0-2_LAYER1
  6
CONTINUOUS
 62
    1
 10
6906.1109690000003
 20
3776.3659950000001
 11
6779.0105870000007
 21
3693.894945
  0
LINE
  8
_0-2_LAYER1
  6
CONTINUOUS
 62
    1
 10
15029.010587000001
 20
3776.3659950000001
 11
15156.110968999999
 21
3693.894945
  0
ARC
  8
_0-2_LAYER1
  6
CONTINUOUS
 62
    1
 10
15217.560777999999
 20
3785.1304700000001
 40
110
 50
236.03857400000004
 51
270
  0
ARC
  8
_0-2_LAYER1
  6
CONTINUOUS
 62
    1
 10
14217.560777999999
 20
3785.1304700000001
 40
110
 50
236.03857400000004
 51
303.96142600000002
  0
ARC
  8
_0-2_LAYER1
  6
CONTINUOUS
 62
    1
 10
14467.560777999999
 20
3665.1304700000001
 40
110
 50
56.038573999999997
 51
123.96142600000002
  0
ARC
  8
_0-2_LAYER1
  6
CONTINUOUS
 62
    1
 10
14717.560777999999
 20
3785.1304700000001
 40
110
 50
236.03857400000004
 51
303.96142600000002
  0
LINE
  8
_0-2_LAYER1
  6
CONTINUOUS
 62
    1
 10
14656.110968999999
 20
3693.894945
 11
14529.010587000001
 21
3756.3659950000001
  0
LINE
  8
_0-2_LAYER1
  6
CONTINUOUS
 62
    1
 10
14406.110968999999
 20
3756.3659950000001
 11
14279.010587000001
 21
3692.3275469999999
  0
LINE
  8
_0-2_LAYER1
  6
CONTINUOUS
 62
    1
 10
14029.010587000001
 20
3776.3659950000001
 11
14156.110968999999
 21
3693.894945
  0
LINE
  8
_0-2_LAYER1
  6
CONTINUOUS
 62
    1
 10
14906.110968999999
 20
3776.3659950000001
 11
14779.010587000001
 21
3693.894945
  0
ARC
  8
_0-2_LAYER1
  6
CONTINUOUS
 62
    1
 10
14967.560777999999
 20
3685.1304700000001
 40
110
 50
56.038573999999997
 51
123.96142600000002
  0
ARC
  8
_0-2_LAYER1
  6
CONTINUOUS
 62
    1
 10
13967.560777999999
 20
3685.1304700000001
 40
110
 50
56.038573999999997
 51
123.96142600000002
  0
LINE
  8
_0-2_LAYER1
  6
CONTINUOUS
 62
    1
 10
13906.110968999999
 20
3776.3659950000001
 11
13779.010587000001
 21
3693.894945
  0
LINE
  8
_0-2_LAYER1
  6
CONTINUOUS
 62
    1
 10
13029.010587000001
 20
3776.3659950000001
 11
13156.110968999999
 21
3693.894945
  0
LINE
  8
_0-2_LAYER1
  6
CONTINUOUS
 62
    1
 10
13406.110968999999
 20
3756.3659950000001
 11
13279.010587000001
 21
3692.3275469999999
  0
LINE
  8
_0-2_LAYER1
  6
CONTINUOUS
 62
    1
 10
13656.110968999999
 20
3693.894945
 11
13529.010587000001
 21
3756.3659950000001
  0
ARC
  8
_0-2_LAYER1
  6
CONTINUOUS
 62
    1
 10
13717.560777999999
 20
3785.1304700000001
 40
110
 50
236.03857400000004
 51
303.96142600000002
  0
ARC
  8
_0-2_LAYER1
  6
CONTINUOUS
 62
    1
 10
13467.560777999999
 20
3665.1304700000001
 40
110
 50
56.038573999999997
 51
123.96142600000002
  0
ARC
  8
_0-2_LAYER1
  6
CONTINUOUS
 62
    1
 10
13217.560777999999
 20
3785.1304700000001
 40
110
 50
236.03857400000004
 51
303.96142600000002
  0
ARC
  8
_0-2_LAYER1
  6
CONTINUOUS
 62
    1
 10
12217.560777999999
 20
3785.1304700000001
 40
110
 50
236.03857400000004
 51
303.96142600000002
  0
ARC
  8
_0-2_LAYER1
  6
CONTINUOUS
 62
    1
 10
12467.560777999999
 20
3665.1304700000001
 40
110
 50
56.038573999999997
 51
123.96142600000002
  0
ARC
  8
_0-2_LAYER1
  6
CONTINUOUS
 62
    1
 10
12717.560777999999
 20
3785.1304700000001
 40
110
 50
236.03857400000004
 51
303.96142600000002
  0
LINE
  8
_0-2_LAYER1
  6
CONTINUOUS
 62
    1
 10
12656.110968999999
 20
3693.894945
 11
12529.010587000001
 21
3756.3659950000001
  0
LINE
  8
_0-2_LAYER1
  6
CONTINUOUS
 62
    1
 10
12406.110968999999
 20
3756.3659950000001
 11
12279.010587000001
 21
3692.3275469999999
  0
LINE
  8
_0-2_LAYER1
  6
CONTINUOUS
 62
    1
 10
12029.010587000001
 20
3776.3659950000001
 11
12156.110968999999
 21
3693.894945
  0
LINE
  8
_0-2_LAYER1
  6
CONTINUOUS
 62
    1
 10
12906.110968999999
 20
3776.3659950000001
 11
12779.010587000001
 21
3693.894945
  0
ARC
  8
_0-2_LAYER1
  6
CONTINUOUS
 62
    1
 10
12967.560777999999
 20
3685.1304700000001
 40
110
 50
56.038573999999997
 51
123.96142600000002
  0
ARC
  8
_0-2_LAYER1
  6
CONTINUOUS
 62
    1
 10
11967.560777999999
 20
3685.1304700000001
 40
110
 50
56.038573999999997
 51
123.96142600000002
  0
LINE
  8
_0-2_LAYER1
  6
CONTINUOUS
 62
    1
 10
11906.110968999999
 20
3776.3659950000001
 11
11779.010587000001
 21
3693.894945
  0
LINE
  8
_0-2_LAYER1
  6
CONTINUOUS
 62
    1
 10
11029.010587000001
 20
3776.3659950000001
 11
11156.110968999999
 21
3693.894945
  0
LINE
  8
_0-2_LAYER1
  6
CONTINUOUS
 62
    1
 10
11406.110968999999
 20
3756.3659950000001
 11
11279.010587000001
 21
3692.3275469999999
  0
LINE
  8
_0-2_LAYER1
  6
CONTINUOUS
 62
    1
 10
11656.110968999999
 20
3693.894945
 11
11529.010587000001
 21
3756.3659950000001
  0
ARC
  8
_0-2_LAYER1
  6
CONTINUOUS
 62
    1
 10
11717.560777999999
 20
3785.1304700000001
 40
110
 50
236.03857400000004
 51
303.96142600000002
  0
ARC
  8
_0-2_LAYER1
  6
CONTINUOUS
 62
    1
 10
11467.560777999999
 20
3665.1304700000001
 40
110
 50
56.038573999999997
 51
123.96142600000002
  0
ARC
  8
_0-2_LAYER1
  6
CONTINUOUS
 62
    1
 10
11217.560777999999
 20
3785.1304700000001
 40
110
 50
236.03857400000004
 51
303.96142600000002
  0
TEXT
  8
_0-2_LAYER1
 62
    7
 10
5261.5607780000009
 20
8884.1304700000001
 40
140
 41
0.8
 50
0
  1
水抜き穴5φ
  0
LINE
  8
_0-2_LAYER1
  6
CONTINUOUS
 62
    1
 10
5996.5607780000009
 20
8884.1304700000001
 11
5261.5607780000009
 21
8884.1304700000001
  0
CIRCLE
  8
_0-2_LAYER1
  6
CONTINUOUS
 62
    1
 10
14595.560777999999
 20
9760.1304700000001
 40
25
  0
CIRCLE
  8
_0-2_LAYER1
  6
CONTINUOUS
 62
    1
 10
13795.560777999999
 20
9480.1304700000001
 40
25
  0
CIRCLE
  8
_0-2_LAYER1
  6
CONTINUOUS
 62
    1
 10
12995.560777999999
 20
9760.1304700000001
 40
25
  0
CIRCLE
  8
_0-2_LAYER1
  6
CONTINUOUS
 62
    1
 10
12195.560777999999
 20
9480.1304700000001
 40
25
  0
CIRCLE
  8
_0-2_LAYER1
  6
CONTINUOUS
 62
    1
 10
11395.560777999999
 20
9760.1304700000001
 40
25
  0
CIRCLE
  8
_0-2_LAYER1
  6
CONTINUOUS
 62
    1
 10
10595.560777999999
 20
9480.1304700000001
 40
25
  0
CIRCLE
  8
_0-2_LAYER1
  6
CONTINUOUS
 62
    1
 10
9795.5607779999991
 20
9760.1304700000001
 40
25
  0
CIRCLE
  8
_0-2_LAYER1
  6
CONTINUOUS
 62
    1
 10
8995.5607779999991
 20
9480.1304700000001
 40
25
  0
CIRCLE
  8
_0-2_LAYER1
  6
CONTINUOUS
 62
    1
 10
8195.5607779999991
 20
9760.1304700000001
 40
25
  0
CIRCLE
  8
_0-2_LAYER1
  6
CONTINUOUS
 62
    1
 10
7395.560778
 20
9480.1304700000001
 40
25
  0
LINE
  8
_0-2_LAYER1
  6
CONTINUOUS
 62
    1
 10
7395.560778
 20
9480.1304700000001
 11
5996.5607780000009
 21
8884.1304700000001
  0
LINE
  8
_0-2_LAYER1
  6
CONTINUOUS
 62
    1
 10
5996.5607780000009
 20
8884.1304700000001
 11
5261.5607780000009
 21
8884.1304700000001
  0
LINE
  8
_0-2_LAYER1
  6
CONTINUOUS
 62
    3
 10
3955.5607779999991
 20
5078.1304700000001
 11
4028.560778
 21
5149.1304700000001
  0
LINE
  8
_0-2_LAYER1
  6
CONTINUOUS
 62
    3
 10
4026.560778
 20
5148.1304700000001
 11
3953.560778
 21
5078.1304700000001
  0
LINE
  8
_0-2_LAYER1
  6
CONTINUOUS
 62
    3
 10
3926.560778
 20
5254.1304700000001
 11
4028.560778
 21
5149.1304700000001
  0
LINE
  8
_0-2_LAYER1
  6
CONTINUOUS
 62
    3
 10
3924.560778
 20
5253.1304700000001
 11
4026.560778
 21
5148.1304700000001
  0
LINE
  8
_0-2_LAYER1
  6
CONTINUOUS
 62
    3
 10
3955.5607779999991
 20
5078.1304700000001
 11
3956.560778
 21
4978.1304700000001
  0
LINE
  8
_0-2_LAYER1
  6
CONTINUOUS
 62
    3
 10
3956.560778
 20
4833.1304700000001
 11
3949.560778
 21
4715.1304700000001
  0
LINE
  8
_0-2_LAYER1
  6
CONTINUOUS
 62
    3
 10
3953.560778
 20
5078.1304700000001
 11
3955.5607779999991
 21
4979.1304700000001
  0
LINE
  8
_0-2_LAYER1
  6
CONTINUOUS
 62
    3
 10
3956.560778
 20
4831.1304700000001
 11
3948.560778
 21
4716.1304700000001
  0
LINE
  8
_0-2_LAYER1
  6
DASHED
 62
    3
 10
3956.560778
 20
4833.1304700000001
 11
3956.560778
 21
4978.1304700000001
  0
LINE
  8
_0-2_LAYER1
  6
DASHED
 62
    3
 10
3955.5607779999991
 20
4979.1304700000001
 11
3956.560778
 21
4831.1304700000001
  0
LINE
  8
_0-2_LAYER1
  6
CONTINUOUS
 62
    3
 10
3948.560778
 20
4716.1304700000001
 11
3875.5607779999991
 21
4707.1304700000001
  0
LINE
  8
_0-2_LAYER1
  6
CONTINUOUS
 62
    3
 10
3949.560778
 20
4715.1304700000001
 11
3877.5607779999991
 21
4706.1304700000001
  0
LINE
  8
_0-2_LAYER1
  6
CONTINUOUS
 62
    3
 10
3888.560778
 20
4219.1304700000001
 11
3888.560778
 21
4238.1304700000001
  0
LINE
  8
_0-2_LAYER1
  6
CONTINUOUS
 62
    3
 10
3888.560778
 20
4218.1304700000001
 11
3875.5607779999991
 21
4707.1304700000001
  0
LINE
  8
_0-2_LAYER1
  6
CONTINUOUS
 62
    3
 10
3877.5607779999991
 20
4706.1304700000001
 11
3889.560778
 21
4219.1304700000001
  0
LINE
  8
_0-2_LAYER1
  6
CONTINUOUS
 62
    3
 10
3889.560778
 20
4239.1304700000001
 11
3889.560778
 21
4219.1304700000001
  0
LINE
  8
_0-2_LAYER1
  6
CONTINUOUS
 62
    3
 10
4008.560778
 20
4230.1304700000001
 11
3889.560778
 21
4219.1304700000001
  0
LINE
  8
_0-2_LAYER1
  6
CONTINUOUS
 62
    3
 10
3999.560778
 20
4329.1304700000001
 11
3888.560778
 21
4319.1304700000001
  0
LINE
  8
_0-2_LAYER1
  6
CONTINUOUS
 62
    3
 10
3999.560778
 20
4329.1304700000001
 11
4008.560778
 21
4230.1304700000001
  0
LINE
  8
_0-2_LAYER1
  6
CONTINUOUS
 62
    3
 10
3604.560778
 20
4450.1304700000001
 11
3882.5607779999991
 21
4468.1304700000001
  0
LINE
  8
_0-2_LAYER1
  6
CONTINUOUS
 62
    3
 10
3888.560778
 20
4219.1304700000001
 11
3620.5607779999991
 21
4201.1304700000001
  0
LINE
  8
_0-2_LAYER1
  6
CONTINUOUS
 62
    3
 10
3604.560778
 20
4450.1304700000001
 11
3620.5607779999991
 21
4201.1304700000001
  0
LINE
  8
_0-2_LAYER1
  6
CONTINUOUS
 62
    1
 10
3830.5607779999991
 20
5608.1304700000001
 11
3830.5607779999991
 21
5408.1304700000001
  0
LINE
  8
_0-2_LAYER1
  6
CONTINUOUS
 62
    1
 10
3926.560778
 20
5608.1304700000001
 11
3926.560778
 21
5408.1304700000001
  0
LINE
  8
_0-2_LAYER1
  6
CONTINUOUS
 62
    1
 10
3830.5607779999991
 20
5608.1304700000001
 11
3926.560778
 21
5608.1304700000001
  0
TEXT
  8
_0-2_LAYER1
 62
    7
 10
3826.060778
 20
5628.1304700000001
 40
140
 41
0.8
 50
0
  1
10
  0
LINE
  8
_0-2_LAYER1
  6
CONTINUOUS
 62
    1
 10
4554.560778
 20
5148.1304700000001
 11
4354.560778
 21
5148.1304700000001
  0
LINE
  8
_0-2_LAYER1
  6
CONTINUOUS
 62
    1
 10
4554.560778
 20
5254.1304700000001
 11
4354.560778
 21
5254.1304700000001
  0
LINE
  8
_0-2_LAYER1
  6
CONTINUOUS
 62
    1
 10
4554.560778
 20
5148.1304700000001
 11
4554.560778
 21
5254.1304700000001
  0
TEXT
  8
_0-2_LAYER1
 62
    7
 10
4534.560778
 20
5148.6304700000001
 40
140
 41
0.8
 50
90
  1
10
  0
LINE
  8
_0-2_LAYER1
  6
CONTINUOUS
 62
    1
 10
4554.560778
 20
4236.1304700000001
 11
4354.560778
 21
4236.1304700000001
  0
LINE
  8
_0-2_LAYER1
  6
CONTINUOUS
 62
    1
 10
4554.560778
 20
5148.1304700000001
 11
4354.560778
 21
5148.1304700000001
  0
LINE
  8
_0-2_LAYER1
  6
CONTINUOUS
 62
    1
 10
4554.560778
 20
4236.1304700000001
 11
4554.560778
 21
5148.1304700000001
  0
TEXT
  8
_0-2_LAYER1
 62
    7
 10
4534.560778
 20
4639.6304700000001
 40
140
 41
0.8
 50
90
  1
90
  0
LINE
  8
_0-2_LAYER1
  6
CONTINUOUS
 62
    1
 10
4754.560778
 20
4236.1304700000001
 11
4554.560778
 21
4236.1304700000001
  0
LINE
  8
_0-2_LAYER1
  6
CONTINUOUS
 62
    1
 10
4754.560778
 20
5254.1304700000001
 11
4554.560778
 21
5254.1304700000001
  0
LINE
  8
_0-2_LAYER1
  6
CONTINUOUS
 62
    1
 10
4754.560778
 20
4236.1304700000001
 11
4754.560778
 21
5254.1304700000001
  0
TEXT
  8
_0-2_LAYER1
 62
    7
 10
4734.560778
 20
4666.3804700000001
 40
140
 41
0.8
 50
90
  1
100
  0
LINE
  8
_0-2_LAYER1
  6
CONTINUOUS
 62
    3
 10
3723.5607780000009
 20
1879.1304700000001
 11
3908.5607780000009
 21
1979.1304700000001
  0
LINE
  8
_0-2_LAYER1
  6
CONTINUOUS
 62
    3
 10
3915.560778
 20
1149.1304700000001
 11
3841.560778
 21
1149.1304700000001
  0
LINE
  8
_0-2_LAYER1
  6
CONTINUOUS
 62
    3
 10
3716.560778
 20
1871.1304700000001
 11
3834.560778
 21
1155.1304700000003
  0
ARC
  8
_0-2_LAYER1
  6
CONTINUOUS
 62
    3
 10
3841.560778
 20
1156.1304700000001
 40
7
 50
188.53999999999999
 51
270
  0
ARC
  8
_0-2_LAYER1
  6
CONTINUOUS
 62
    3
 10
3723.5607780000009
 20
1872.1304700000001
 40
7
 50
90
 51
188.53
  0
LINE
  8
_0-2_LAYER1
  6
CONTINUOUS
 62
    3
 10
3915.560778
 20
1899.1304700000001
 11
3915.560778
 21
1972.1304700000001
  0
ARC
  8
_0-2_LAYER1
  6
CONTINUOUS
 62
    3
 10
3908.5607780000009
 20
1972.1304700000001
 40
7
 50
0
 51
90
  0
LINE
  8
_0-2_LAYER1
  6
CONTINUOUS
 62
    3
 10
3915.560778
 20
1151.1304700000001
 11
3841.560778
 21
1151.1304700000001
  0
LINE
  8
_0-2_LAYER1
  6
CONTINUOUS
 62
    3
 10
3718.5607780000009
 20
1871.1304700000001
 11
3836.560778
 21
1155.1304700000003
  0
ARC
  8
_0-2_LAYER1
  6
CONTINUOUS
 62
    3
 10
3841.560778
 20
1156.1304700000001
 40
5
 50
188.56999999999999
 51
270
  0
LINE
  8
_0-2_LAYER1
  6
CONTINUOUS
 62
    3
 10
3723.5607780000009
 20
1877.1304700000001
 11
3908.5607780000009
 21
1977.1304700000001
  0
ARC
  8
_0-2_LAYER1
  6
CONTINUOUS
 62
    3
 10
3723.5607780000009
 20
1872.1304700000001
 40
5
 50
90
 51
188.56999999999996
  0
LINE
  8
_0-2_LAYER1
  6
CONTINUOUS
 62
    3
 10
3913.5607780000009
 20
1899.1304700000001
 11
3913.5607780000009
 21
1972.1304700000001
  0
ARC
  8
_0-2_LAYER1
  6
CONTINUOUS
 62
    3
 10
3908.5607780000009
 20
1972.1304700000001
 40
5
 50
0
 51
90
  0
LINE
  8
_0-2_LAYER1
  6
CONTINUOUS
 62
    3
 10
3915.560778
 20
1151.1304700000001
 11
3915.560778
 21
1149.1304700000001
  0
LINE
  8
_0-2_LAYER1
  6
CONTINUOUS
 62
    3
 10
3913.5607780000009
 20
1899.1304700000001
 11
3915.560778
 21
1899.1304700000001
  0
LINE
  8
_0-2_LAYER1
  6
CONTINUOUS
 62
    1
 10
3330.0463570000011
 20
1149.1304700000001
 11
3530.0463570000011
 21
1149.1304700000001
  0
LINE
  8
_0-2_LAYER1
  6
CONTINUOUS
 62
    1
 10
3330.0463570000011
 20
1979.1304700000001
 11
3530.0463570000011
 21
1979.1304700000001
  0
LINE
  8
_0-2_LAYER1
  6
CONTINUOUS
 62
    1
 10
3330.0463570000011
 20
1149.1304700000001
 11
3330.0463570000011
 21
1979.1304700000001
  0
TEXT
  8
_0-2_LAYER1
 62
    7
 10
3310.0463570000011
 20
1511.6304700000001
 40
140
 41
0.8
 50
90
  1
89
  0
LINE
  8
_0-2_LAYER1
  6
CONTINUOUS
 62
    1
 10
3715.560778
 20
2341.425033
 11
3715.560778
 21
2141.425033
  0
LINE
  8
_0-2_LAYER1
  6
CONTINUOUS
 62
    1
 10
3915.560778
 20
2341.425033
 11
3915.560778
 21
2141.425033
  0
LINE
  8
_0-2_LAYER1
  6
CONTINUOUS
 62
    1
 10
3715.560778
 20
2341.425033
 11
3915.560778
 21
2341.425033
  0
TEXT
  8
_0-2_LAYER1
 62
    7
 10
3763.060778
 20
2361.425033
 40
140
 41
0.8
 50
0
  1
20
  0
LINE
  8
_0-2_LAYER1
  6
CONTINUOUS
 62
    1
 10
4407.4181470000003
 20
1899.1304700000001
 11
4207.4181470000003
 21
1899.1304700000001
  0
LINE
  8
_0-2_LAYER1
  6
CONTINUOUS
 62
    1
 10
4407.4181470000003
 20
1979.1304700000001
 11
4207.4181470000003
 21
1979.1304700000001
  0
LINE
  8
_0-2_LAYER1
  6
CONTINUOUS
 62
    1
 10
4407.4181470000003
 20
1899.1304700000001
 11
4407.4181470000003
 21
1979.1304700000001
  0
TEXT
  8
_0-2_LAYER1
 62
    7
 10
4387.4181470000003
 20
1912.8804700000001
 40
140
 41
0.8
 50
90
  1
8
  0
LINE
  8
_0-2_LAYER1
  6
CONTINUOUS
 62
    1
 10
3835.560778
 20
888.13046999999983
 11
3835.560778
 21
1088.1304699999998
  0
LINE
  8
_0-2_LAYER1
  6
CONTINUOUS
 62
    1
 10
3915.560778
 20
888.13046999999983
 11
3915.560778
 21
1088.1304699999998
  0
LINE
  8
_0-2_LAYER1
  6
CONTINUOUS
 62
    1
 10
3835.560778
 20
888.13046999999983
 11
3915.560778
 21
888.13046999999983
  0
TEXT
  8
_0-2_LAYER1
 62
    7
 10
3849.310778
 20
908.13046999999983
 40
140
 41
0.8
 50
0
  1
8
  0
TEXT
  8
_0-2_LAYER1
 62
    7
 10
1340.599001663893
 20
10229.13047
 40
280
 41
1
 50
0
  1
内臓型棟換気ｼｽﾃﾑ
  0
TEXT
  8
_0-2_LAYER1
 62
    7
 10
1340.599001663893
 20
9622.1304700000001
 40
280
 41
1
 50
0
  1
青空６０型
  0
TEXT
  8
_0-2_LAYER1
 62
    7
 10
1340.599001663893
 20
8952.4787881747125
 40
140
 41
0.8
 50
0
  1
外形寸法表
  0
TEXT
  8
_0-2_LAYER1
 62
    7
 10
1340.599001663893
 20
7411.1920688994642
 40
140
 41
0.8
 50
0
  1
本体
  0
TEXT
  8
_0-2_LAYER1
 62
    7
 10
1340.599001663893
 20
6768.9892692014437
 40
140
 41
0.8
 50
0
  1
使用材料 SUS304 0.4mm
  0
TEXT
  8
_0-2_LAYER1
 62
    7
 10
6416.810778
 20
10808.13047
 40
140
 41
0.8
 50
0
  1
10
  0
TEXT
  8
_0-2_LAYER1
 62
    7
 10
10864.310777999999
 20
10808.13047
 40
140
 41
0.8
 50
0
  1
890
  0
TEXT
  8
_0-2_LAYER1
 62
    7
 10
6686.810778
 20
10608.13047
 40
140
 41
0.8
 50
0
  1
44
  0
TEXT
  8
_0-2_LAYER1
 62
    7
 10
7351.810778
 20
10608.13047
 40
140
 41
0.8
 50
0
  1
89
  0
TEXT
  8
_0-2_LAYER1
 62
    7
 10
8241.8107779999991
 20
10608.13047
 40
140
 41
0.8
 50
0
  1
89
  0
TEXT
  8
_0-2_LAYER1
 62
    7
 10
9131.8107779999991
 20
10608.13047
 40
140
 41
0.8
 50
0
  1
89
  0
TEXT
  8
_0-2_LAYER1
 62
    7
 10
10021.810777999999
 20
10608.13047
 40
140
 41
0.8
 50
0
  1
89
  0
TEXT
  8
_0-2_LAYER1
 62
    7
 10
10911.810777999999
 20
10608.13047
 40
140
 41
0.8
 50
0
  1
89
  0
TEXT
  8
_0-2_LAYER1
 62
    7
 10
11801.810777999999
 20
10608.13047
 40
140
 41
0.8
 50
0
  1
89
  0
TEXT
  8
_0-2_LAYER1
 62
    7
 10
12691.810777999999
 20
10608.13047
 40
140
 41
0.8
 50
0
  1
89
  0
TEXT
  8
_0-2_LAYER1
 62
    7
 10
13581.810777999999
 20
10608.13047
 40
140
 41
0.8
 50
0
  1
89
  0
TEXT
  8
_0-2_LAYER1
 62
    7
 10
14471.810777999999
 20
10608.13047
 40
140
 41
0.8
 50
0
  1
89
  0
TEXT
  8
_0-2_LAYER1
 62
    7
 10
15141.810777999999
 20
10608.13047
 40
140
 41
0.8
 50
0
  1
45
  0
TEXT
  8
_0-2_LAYER1
 62
    7
 10
7139.310778
 20
8748.1304700000001
 40
140
 41
0.8
 50
0
  1
145
  0
TEXT
  8
_0-2_LAYER1
 62
    7
 10
8864.3107779999991
 20
8748.1304700000001
 40
140
 41
0.8
 50
0
  1
200
  0
TEXT
  8
_0-2_LAYER1
 62
    7
 10
9916.8107779999991
 20
8824.1304700000001
 40
140
 41
0.8
 50
0
  1
30
  0
TEXT
  8
_0-2_LAYER1
 62
    7
 10
10458.921909999999
 20
9076.3804700000001
 40
140
 41
0.8
 50
90
  1
20
  0
TEXT
  8
_0-2_LAYER1
 62
    7
 10
10864.310777999999
 20
8748.1304700000001
 40
140
 41
0.8
 50
0
  1
200
  0
TEXT
  8
_0-2_LAYER1
 62
    7
 10
12864.310777999999
 20
8748.1304700000001
 40
140
 41
0.8
 50
0
  1
200
  0
TEXT
  8
_0-2_LAYER1
 62
    7
 10
14589.310777999999
 20
8748.1304700000001
 40
140
 41
0.8
 50
0
  1
145
  0
TEXT
  8
_0-0_0
 62
    7
 10
1340.599001663893
 20
1607.221297836938
 40
140
 41
0.8
 50
0
  1
プレート（葺土止め）
  0
TEXT
  8
_0-0_0
 62
    7
 10
1340.599001663893
 20
1187.9201331114809
 40
140
 41
0.8
 50
0
  1
使用材料　ガルバリウム鋼板　0.3mm
  0
TEXT
  8
_0-2_LAYER1
 62
    7
 10
1340.599001663893
 20
5031.397670549085
 40
140
 41
0.8
 50
0
  1
カバー
  0
TEXT
  8
_0-2_LAYER1
 62
    7
 10
1340.599001663893
 20
4528.2362728785356
 40
140
 41
0.8
 50
0
  1
使用材料 SUS304 0.4mm
  0
ENDSEC
  0
EOF
