  0
SECTION
  2
HEADER
  9
$ACADVER
  1
AC1009
  9
$INSBASE
 10
0
 20
0
 30
0
  9
$EXTMIN
 10
0
 20
0
  9
$EXTMAX
 10
16800
 20
11880
  9
$LIMMIN
 10
0
 20
0
  9
$LIMMAX
 10
16800
 20
11880
  9
$LTSCALE
 40
40
  0
ENDSEC
  0
SECTION
  2
TABLES
  0
TABLE
  2
LTYPE
 70
     9
  0
LTYPE
  2
CONTINUOUS
 70
    64
  3
実線
 72
    65
 73
     0
 40
0.0
  0
LTYPE
  2
DASHED1
 70
    64
  3
--  --  --  --  --  --  --  --  
 72
    65
 73
     2
 40
2.5
 49
1.25
 49
-1.25
  0
LTYPE
  2
DASHED2
 70
    64
  3
----    ----    ----    ----    
 72
    65
 73
     2
 40
5.0
 49
2.5
 49
-2.5
  0
LTYPE
  2
DASHED3
 70
    64
  3
------  ------  ------  ------  
 72
    65
 73
     2
 40
5.0
 49
3.75
 49
-1.25
  0
LTYPE
  2
CENTER1
 70
    64
  3
----- - ----- - ----- - ----- - 
 72
    65
 73
     4
 40
10.0
 49
6.25
 49
-1.25
 49
1.25
 49
-1.25
  0
LTYPE
  2
CENTER2
 70
    64
  3
----------  --  ----------  --  
 72
    65
 73
     4
 40
20.0
 49
12.5
 49
-2.5
 49
2.5
 49
-2.5
  0
LTYPE
  2
PHANTOM1
 70
    64
  3
--- - - --- - - --- - - --- - - 
 72
    65
 73
     6
 40
10.0
 49
3.25
 49
-1.25
 49
1.25
 49
-1.25
 49
1.25
 49
-1.25
  0
LTYPE
  2
PHANTOM2
 70
    64
  3
--------  -  -  --------  -  -  
 72
    65
 73
     6
 40
20.0
 49
10.0
 49
-2.5
 49
1.25
 49
-2.5
 49
1.25
 49
-2.5
  0
LTYPE
  2
DOT
 70
    64
  3
-   -   -   -   -   -   -   -   
 72
    65
 73
     2
 40
2.5
 49
0.625
 49
-1.875
  0
LTYPE
  2
DUMMY
 70
    64
  3
ダミー
 72
    65
 73
     0
 40
0.0
  0
LTYPE
  2
RAND1
 70
    64
  3
ランダム線1
 72
    65
 73
     4
 40
10.0
 49
1.0
 49
-2.0
 49
3.0
 49
-4.0
  0
LTYPE
  2
RAND2
 70
    64
  3
ランダム線2
 72
    65
 73
     4
 40
14.0
 49
2.0
 49
-3.0
 49
4.0
 49
-5.0
  0
LTYPE
  2
RAND3
 70
    64
  3
ランダム線3
 72
    65
 73
     4
 40
18.0
 49
3.0
 49
-4.0
 49
5.0
 49
-6.0
  0
LTYPE
  2
RAND4
 70
    64
  3
ランダム線4
 72
    65
 73
     4
 40
22.0
 49
4.0
 49
-5.0
 49
6.0
 49
-7.0
  0
LTYPE
  2
RAND5
 70
    64
  3
ランダム線5
 72
    65
 73
     4
 40
26.0
 49
5.0
 49
-6.0
 49
7.0
 49
-8.0
  0
LTYPE
  2
LONG1
 70
    64
  3
----------  --  ----------  --  
 72
    65
 73
     4
 40
40.0
 49
32.5
 49
-2.5
 49
2.5
 49
-2.5
  0
LTYPE
  2
LONG2
 70
    64
  3
--------  -  -  --------  -  -  
 72
    65
 73
     6
 40
40.0
 49
30.0
 49
-2.5
 49
1.25
 49
-2.5
 49
1.25
 49
-2.5
  0
LTYPE
  2
LONG3
 70
    64
  3
+++++++++++++++..+++++++++++++++
 72
    65
 73
     2
 40
40.0
 49
37.5
 49
-2.5
  0
LTYPE
  2
LONG4
 70
    64
  3
+++++++++++++++..+++++++++++++++
 72
    65
 73
     2
 40
80.0
 49
75.0
 49
-5.0
  0
LTYPE
  2
LONG5
 70
    64
  3
----------  --  ----------  --  
 72
    65
 73
     4
 40
60.0
 49
37.5
 49
-7.5
 49
7.5
 49
-7.5
  0
LTYPE
  2
dashed
 70
   64
  3
-------   -------------   ------
 72
   65
 73
    2
 40
7.5
 49
6
 49
-1.5
  0
LTYPE
  2
dashed_spaced
 70
   64
  3
----        --------        ----
 72
   65
 73
    2
 40
12
 49
6
 49
-6
  0
LTYPE
  2
long_dashed_dotted
 70
   64
  3
------------- --- --------------
 72
   65
 73
    4
 40
15.25
 49
12
 49
-1.5
 49
0.25
 49
-1.5
  0
LTYPE
  2
long_dashed_double-dotted
 70
   64
  3
----------- --- --- ------------
 72
   65
 73
    6
 40
17
 49
12
 49
-1.5
 49
0.25
 49
-1.5
 49
0.25
 49
-1.5
  0
LTYPE
  2
long_dashed_triplicate-dotted
 70
   64
  3
--------- --- --- --- ----------
 72
   65
 73
    8
 40
18.75
 49
12
 49
-1.5
 49
0.25
 49
-1.5
 49
0.25
 49
-1.5
 49
0.25
 49
-1.5
  0
LTYPE
  2
dotted
 70
   64
  3
   -       -       -       -    
 72
   65
 73
    2
 40
1.75
 49
0.25
 49
-1.5
  0
LTYPE
  2
chain
 70
   64
  3
-------------- -- --------------
 72
   65
 73
    4
 40
18.5
 49
12
 49
-1.5
 49
3.5
 49
-1.5
  0
LTYPE
  2
chain_double_dash
 70
   64
  3
------------ -- -- -------------
 72
   65
 73
    6
 40
23.5
 49
12
 49
-1.5
 49
3.5
 49
-1.5
 49
3.5
 49
-1.5
  0
LTYPE
  2
dashed_dotted
 70
   64
  3
-----------     -     ----------
 72
   65
 73
    4
 40
9.25
 49
6
 49
-1.5
 49
0.25
 49
-1.5
  0
LTYPE
  2
double-dashed_dotted
 70
   64
  3
------   -----------   -   -----
 72
   65
 73
    6
 40
16.75
 49
6
 49
-1.5
 49
6
 49
-1.5
 49
0.25
 49
-1.5
  0
LTYPE
  2
dashed_double-dotted
 70
   64
  3
---------    -    -    ---------
 72
   65
 73
    6
 40
11
 49
6
 49
-1.5
 49
0.25
 49
-1.5
 49
0.25
 49
-1.5
  0
LTYPE
  2
double-dashed_double-dotted
 70
   64
  3
-----   ---------   -   -   ----
 72
   65
 73
    8
 40
18.5
 49
6
 49
-1.5
 49
6
 49
-1.5
 49
0.25
 49
-1.5
 49
0.25
 49
-1.5
  0
LTYPE
  2
dashed_triplicate-dotted
 70
   64
  3
-------    -    -    -    ------
 72
   65
 73
    8
 40
12.75
 49
6
 49
-1.5
 49
0.25
 49
-1.5
 49
0.25
 49
-1.5
 49
0.25
 49
-1.5
  0
LTYPE
  2
double-dashed_triplicate-dotted
 70
   64
  3
-----  ---------  -  -  -  -----
 72
   65
 73
   10
 40
20.25
 49
6
 49
-1.5
 49
6
 49
-1.5
 49
0.25
 49
-1.5
 49
0.25
 49
-1.5
 49
0.25
 49
-1.5
  0
LTYPE
  2
undefined
 70
   64
  3
--------------------------------
 72
   65
 73
    0
 40
0
  0
LTYPE
  2
DASHED
 70
   64
  3
------     -----------     -----
 72
   65
 73
    2
 40
1.5
 49
1
 49
-0.5
  0
LTYPE
  2
CENTER
 70
   64
  3
---------          --  ---------
 72
   65
 73
    4
 40
4
 49
2.25
 49
-1.25
 49
0.25
 49
-0.25
  0
LTYPE
  2
_
 70
   64
  3
                                
 72
   65
 73
    0
 40
0
  0
LTYPE
  2
__20
 70
   64
  3
                                
 72
   65
 73
    0
 40
0
  0
LTYPE
  2
__21
 70
   64
  3
                                
 72
   65
 73
    0
 40
0
  0
LTYPE
  2
__22
 70
   64
  3
                                
 72
   65
 73
    0
 40
0
  0
LTYPE
  2
__23
 70
   64
  3
                                
 72
   65
 73
    0
 40
0
  0
LTYPE
  2
__24
 70
   64
  3
                                
 72
   65
 73
    0
 40
0
  0
LTYPE
  2
__25
 70
   64
  3
                                
 72
   65
 73
    0
 40
0
  0
LTYPE
  2
__26
 70
   64
  3
                                
 72
   65
 73
    0
 40
0
  0
LTYPE
  2
__27
 70
   64
  3
                                
 72
   65
 73
    0
 40
0
  0
LTYPE
  2
__28
 70
   64
  3
                                
 72
   65
 73
    0
 40
0
  0
LTYPE
  2
__29
 70
   64
  3
                                
 72
   65
 73
    0
 40
0
  0
LTYPE
  2
__30
 70
   64
  3
                                
 72
   65
 73
    0
 40
0
  0
LTYPE
  2
__31
 70
   64
  3
                                
 72
   65
 73
    0
 40
0
  0
LTYPE
  2
__32
 70
   64
  3
                                
 72
   65
 73
    0
 40
0
  0
ENDTAB
  0
TABLE
  2
STYLE
  5
3
100
AcDbSymbolTable
 70
     1
  0
STYLE
  5
10
100
AcDbSymbolTableRecord
100
AcDbTextStyleTableRecord
  2
STANDARD
 70
     0
 40
0.0
 41
1.0
 50
0.0
 71
     0
 42
0.2
  3
txt
  4
bigfont.shx
  0
STYLE
  5
26
100
AcDbSymbolTableRecord
100
AcDbTextStyleTableRecord
  2
TATEGAKI
 70
    68
 40
0.0
 41
1.0
 50
0.0
 71
     0
 42
1.0
  3
txt
  4
bigfont.shx
  0
ENDTAB
  0
TABLE
  2
LAYER
 70
    3
  0
LAYER
  2
_0-0_0
 70
   64
 62
    7
  6
CONTINUOUS
  0
LAYER
  2
_0-2_LAYER1
 70
   64
 62
    7
  6
CONTINUOUS
  0
LAYER
  2
ADD_LINE
 70
   64
 62
    7
  6
CONTINUOUS
  0
ENDTAB
  0
ENDSEC
  0
SECTION
  2
BLOCKS
  0
ENDSEC
  0
SECTION
  2
ENTITIES
  0
LINE
  8
_0-2_LAYER1
  6
CONTINUOUS
 62
    1
 10
6545.560778
 20
9840.1304700000001
 11
15445.560777999999
 21
9840.1304700000001
  0
LINE
  8
_0-2_LAYER1
  6
CONTINUOUS
 62
    1
 10
6545.560778
 20
9400.1304700000001
 11
15445.560777999999
 21
9400.1304700000001
  0
LINE
  8
_0-2_LAYER1
  6
CONTINUOUS
 62
    1
 10
6545.560778
 20
9055.1304700000001
 11
6545.560778
 21
10185.13047
  0
LINE
  8
_0-2_LAYER1
  6
CONTINUOUS
 62
    1
 10
15445.560777999999
 20
10185.13047
 11
15445.560777999999
 21
9055.1304700000001
  0
LINE
  8
_0-2_LAYER1
  6
CONTINUOUS
 62
    1
 10
6445.560778
 20
10185.13047
 11
6445.560778
 21
9055.1304700000001
  0
LINE
  8
_0-2_LAYER1
  6
CONTINUOUS
 62
    1
 10
6445.560778
 20
10185.13047
 11
7845.560778
 21
10185.13047
  0
LINE
  8
_0-2_LAYER1
  6
CONTINUOUS
 62
    1
 10
8145.560778
 20
10185.13047
 11
9845.5607779999991
 21
10185.13047
  0
LINE
  8
_0-2_LAYER1
  6
CONTINUOUS
 62
    1
 10
10145.560777999999
 20
10185.13047
 11
11845.560777999999
 21
10185.13047
  0
LINE
  8
_0-2_LAYER1
  6
CONTINUOUS
 62
    1
 10
12145.560777999999
 20
10185.13047
 11
13845.560777999999
 21
10185.13047
  0
LINE
  8
_0-2_LAYER1
  6
CONTINUOUS
 62
    1
 10
14145.560777999999
 20
10185.13047
 11
15445.560777999999
 21
10185.13047
  0
LINE
  8
_0-2_LAYER1
  6
CONTINUOUS
 62
    1
 10
6445.560778
 20
9055.1304700000001
 11
7845.560778
 21
9055.1304700000001
  0
LINE
  8
_0-2_LAYER1
  6
CONTINUOUS
 62
    1
 10
8145.560778
 20
9055.1304700000001
 11
9845.5607779999991
 21
9055.1304700000001
  0
LINE
  8
_0-2_LAYER1
  6
CONTINUOUS
 62
    1
 10
10145.560777999999
 20
9055.1304700000001
 11
11845.560777999999
 21
9055.1304700000001
  0
LINE
  8
_0-2_LAYER1
  6
CONTINUOUS
 62
    1
 10
12145.560777999999
 20
9055.1304700000001
 11
13845.560777999999
 21
9055.1304700000001
  0
LINE
  8
_0-2_LAYER1
  6
CONTINUOUS
 62
    1
 10
14145.560777999999
 20
9055.1304700000001
 11
15445.560777999999
 21
9055.1304700000001
  0
LINE
  8
_0-2_LAYER1
  6
CONTINUOUS
 62
    1
 10
7845.560778
 20
9985.1304700000001
 11
8145.560778
 21
9985.1304700000001
  0
LINE
  8
_0-2_LAYER1
  6
CONTINUOUS
 62
    1
 10
9845.5607779999991
 20
9985.1304700000001
 11
10145.560777999999
 21
9985.1304700000001
  0
LINE
  8
_0-2_LAYER1
  6
CONTINUOUS
 62
    1
 10
11845.560777999999
 20
9985.1304700000001
 11
12145.560777999999
 21
9985.1304700000001
  0
LINE
  8
_0-2_LAYER1
  6
CONTINUOUS
 62
    1
 10
13845.560777999999
 20
9985.1304700000001
 11
14145.560777999999
 21
9985.1304700000001
  0
LINE
  8
_0-2_LAYER1
  6
CONTINUOUS
 62
    1
 10
7845.560778
 20
9255.1304700000001
 11
8145.560778
 21
9255.1304700000001
  0
LINE
  8
_0-2_LAYER1
  6
CONTINUOUS
 62
    1
 10
9845.5607779999991
 20
9255.1304700000001
 11
10145.560777999999
 21
9255.1304700000001
  0
LINE
  8
_0-2_LAYER1
  6
CONTINUOUS
 62
    1
 10
11845.560777999999
 20
9255.1304700000001
 11
12145.560777999999
 21
9255.1304700000001
  0
LINE
  8
_0-2_LAYER1
  6
CONTINUOUS
 62
    1
 10
13845.560777999999
 20
9255.1304700000001
 11
14145.560777999999
 21
9255.1304700000001
  0
LINE
  8
_0-2_LAYER1
  6
CONTINUOUS
 62
    1
 10
7845.560778
 20
10185.13047
 11
7845.560778
 21
9985.1304700000001
  0
LINE
  8
_0-2_LAYER1
  6
CONTINUOUS
 62
    1
 10
7845.560778
 20
9255.1304700000001
 11
7845.560778
 21
9055.1304700000001
  0
LINE
  8
_0-2_LAYER1
  6
CONTINUOUS
 62
    1
 10
8145.560778
 20
9055.1304700000001
 11
8145.560778
 21
9255.1304700000001
  0
LINE
  8
_0-2_LAYER1
  6
CONTINUOUS
 62
    1
 10
8145.560778
 20
9985.1304700000001
 11
8145.560778
 21
10185.13047
  0
LINE
  8
_0-2_LAYER1
  6
CONTINUOUS
 62
    1
 10
9845.5607779999991
 20
10185.13047
 11
9845.5607779999991
 21
9985.1304700000001
  0
LINE
  8
_0-2_LAYER1
  6
CONTINUOUS
 62
    1
 10
9845.5607779999991
 20
9255.1304700000001
 11
9845.5607779999991
 21
9055.1304700000001
  0
LINE
  8
_0-2_LAYER1
  6
CONTINUOUS
 62
    1
 10
10145.560777999999
 20
9055.1304700000001
 11
10145.560777999999
 21
9255.1304700000001
  0
LINE
  8
_0-2_LAYER1
  6
CONTINUOUS
 62
    1
 10
10145.560777999999
 20
9985.1304700000001
 11
10145.560777999999
 21
10185.13047
  0
LINE
  8
_0-2_LAYER1
  6
CONTINUOUS
 62
    1
 10
11845.560777999999
 20
10185.13047
 11
11845.560777999999
 21
9985.1304700000001
  0
LINE
  8
_0-2_LAYER1
  6
CONTINUOUS
 62
    1
 10
11845.560777999999
 20
9255.1304700000001
 11
11845.560777999999
 21
9055.1304700000001
  0
LINE
  8
_0-2_LAYER1
  6
CONTINUOUS
 62
    1
 10
12145.560777999999
 20
9055.1304700000001
 11
12145.560777999999
 21
9255.1304700000001
  0
LINE
  8
_0-2_LAYER1
  6
CONTINUOUS
 62
    1
 10
12145.560777999999
 20
9985.1304700000001
 11
12145.560777999999
 21
10185.13047
  0
LINE
  8
_0-2_LAYER1
  6
CONTINUOUS
 62
    1
 10
13845.560777999999
 20
10185.13047
 11
13845.560777999999
 21
9985.1304700000001
  0
LINE
  8
_0-2_LAYER1
  6
CONTINUOUS
 62
    1
 10
13845.560777999999
 20
9255.1304700000001
 11
13845.560777999999
 21
9055.1304700000001
  0
LINE
  8
_0-2_LAYER1
  6
CONTINUOUS
 62
    1
 10
14145.560777999999
 20
9055.1304700000001
 11
14145.560777999999
 21
9255.1304700000001
  0
LINE
  8
_0-2_LAYER1
  6
CONTINUOUS
 62
    1
 10
14145.560777999999
 20
9985.1304700000001
 11
14145.560777999999
 21
10185.13047
  0
LINE
  8
_0-2_LAYER1
  6
CONTINUOUS
 62
    1
 10
6445.560778
 20
9710.1304700000001
 11
6545.560778
 21
9710.1304700000001
  0
LINE
  8
_0-2_LAYER1
  6
CONTINUOUS
 62
    1
 10
6545.560778
 20
9530.1304700000001
 11
6445.560778
 21
9530.1304700000001
  0
LINE
  8
_0-2_LAYER1
  6
CONTINUOUS
 62
    1
 10
6445.560778
 20
7808.1304700000001
 11
6445.560778
 21
6729.1304700000001
  0
LINE
  8
_0-2_LAYER1
  6
CONTINUOUS
 62
    1
 10
6545.560778
 20
8014.1304700000001
 11
6545.560778
 21
6733.1304700000001
  0
LINE
  8
_0-2_LAYER1
  6
CONTINUOUS
 62
    1
 10
6445.560778
 20
7808.1304700000001
 11
15445.560777999999
 21
7808.1304700000001
  0
LINE
  8
_0-2_LAYER1
  6
CONTINUOUS
 62
    1
 10
6545.560778
 20
6733.1304700000001
 11
7845.560778
 21
6733.1304700000001
  0
LINE
  8
_0-2_LAYER1
  6
CONTINUOUS
 62
    1
 10
6445.560778
 20
6733.1304700000001
 11
7845.560778
 21
6733.1304700000001
  0
LINE
  8
_0-2_LAYER1
  6
CONTINUOUS
 62
    1
 10
8145.560778
 20
6733.1304700000001
 11
9845.5607779999991
 21
6733.1304700000001
  0
LINE
  8
_0-2_LAYER1
  6
CONTINUOUS
 62
    1
 10
10145.560777999999
 20
6733.1304700000001
 11
11845.560777999999
 21
6733.1304700000001
  0
LINE
  8
_0-2_LAYER1
  6
CONTINUOUS
 62
    1
 10
12145.560777999999
 20
6733.1304700000001
 11
13845.560777999999
 21
6733.1304700000001
  0
LINE
  8
_0-2_LAYER1
  6
CONTINUOUS
 62
    1
 10
14145.560777999999
 20
6733.1304700000001
 11
15445.560777999999
 21
6733.1304700000001
  0
LINE
  8
_0-2_LAYER1
  6
CONTINUOUS
 62
    1
 10
6445.560778
 20
6729.1304700000001
 11
7845.560778
 21
6729.1304700000001
  0
LINE
  8
_0-2_LAYER1
  6
CONTINUOUS
 62
    1
 10
8145.560778
 20
6729.1304700000001
 11
9845.5607779999991
 21
6729.1304700000001
  0
LINE
  8
_0-2_LAYER1
  6
CONTINUOUS
 62
    1
 10
10145.560777999999
 20
6729.1304700000001
 11
11845.560777999999
 21
6729.1304700000001
  0
LINE
  8
_0-2_LAYER1
  6
CONTINUOUS
 62
    1
 10
12145.560777999999
 20
6729.1304700000001
 11
13845.560777999999
 21
6729.1304700000001
  0
LINE
  8
_0-2_LAYER1
  6
CONTINUOUS
 62
    1
 10
14145.560777999999
 20
6729.1304700000001
 11
15445.560777999999
 21
6729.1304700000001
  0
LINE
  8
_0-2_LAYER1
  6
CONTINUOUS
 62
    1
 10
6545.560778
 20
6736.1304700000001
 11
7845.560778
 21
6736.1304700000001
  0
LINE
  8
_0-2_LAYER1
  6
CONTINUOUS
 62
    1
 10
8145.560778
 20
6736.1304700000001
 11
9845.5607779999991
 21
6736.1304700000001
  0
LINE
  8
_0-2_LAYER1
  6
CONTINUOUS
 62
    1
 10
10145.560777999999
 20
6736.1304700000001
 11
11845.560777999999
 21
6736.1304700000001
  0
LINE
  8
_0-2_LAYER1
  6
CONTINUOUS
 62
    1
 10
12145.560777999999
 20
6736.1304700000001
 11
13845.560777999999
 21
6736.1304700000001
  0
LINE
  8
_0-2_LAYER1
  6
CONTINUOUS
 62
    1
 10
14145.560777999999
 20
6736.1304700000001
 11
15445.560777999999
 21
6736.1304700000001
  0
LINE
  8
_0-2_LAYER1
  6
CONTINUOUS
 62
    1
 10
15445.560777999999
 20
8014.1304700000001
 11
15445.560777999999
 21
6729.1304700000001
  0
LINE
  8
_0-2_LAYER1
  6
CONTINUOUS
 62
    1
 10
7845.560778
 20
6829.1304700000001
 11
8145.560778
 21
6829.1304700000001
  0
LINE
  8
_0-2_LAYER1
  6
CONTINUOUS
 62
    1
 10
9845.5607779999991
 20
6829.1304700000001
 11
10145.560777999999
 21
6829.1304700000001
  0
LINE
  8
_0-2_LAYER1
  6
CONTINUOUS
 62
    1
 10
11845.560777999999
 20
6829.1304700000001
 11
12145.560777999999
 21
6829.1304700000001
  0
LINE
  8
_0-2_LAYER1
  6
CONTINUOUS
 62
    1
 10
13845.560777999999
 20
6829.1304700000001
 11
14145.560777999999
 21
6829.1304700000001
  0
LINE
  8
_0-2_LAYER1
  6
CONTINUOUS
 62
    1
 10
7845.560778
 20
6822.1304700000001
 11
8145.560778
 21
6822.1304700000001
  0
LINE
  8
_0-2_LAYER1
  6
CONTINUOUS
 62
    1
 10
9845.5607779999991
 20
6822.1304700000001
 11
10145.560777999999
 21
6822.1304700000001
  0
LINE
  8
_0-2_LAYER1
  6
CONTINUOUS
 62
    1
 10
11845.560777999999
 20
6822.1304700000001
 11
12145.560777999999
 21
6822.1304700000001
  0
LINE
  8
_0-2_LAYER1
  6
CONTINUOUS
 62
    1
 10
13845.560777999999
 20
6822.1304700000001
 11
14145.560777999999
 21
6822.1304700000001
  0
LINE
  8
_0-2_LAYER1
  6
CONTINUOUS
 62
    1
 10
7845.560778
 20
6829.1304700000001
 11
7845.560778
 21
6729.1304700000001
  0
LINE
  8
_0-2_LAYER1
  6
CONTINUOUS
 62
    1
 10
8145.560778
 20
6829.1304700000001
 11
8145.560778
 21
6729.1304700000001
  0
LINE
  8
_0-2_LAYER1
  6
CONTINUOUS
 62
    1
 10
9845.5607779999991
 20
6829.1304700000001
 11
9845.5607779999991
 21
6729.1304700000001
  0
LINE
  8
_0-2_LAYER1
  6
CONTINUOUS
 62
    1
 10
10145.560777999999
 20
6829.1304700000001
 11
10145.560777999999
 21
6729.1304700000001
  0
LINE
  8
_0-2_LAYER1
  6
CONTINUOUS
 62
    1
 10
11845.560777999999
 20
6829.1304700000001
 11
11845.560777999999
 21
6729.1304700000001
  0
LINE
  8
_0-2_LAYER1
  6
CONTINUOUS
 62
    1
 10
12145.560777999999
 20
6829.1304700000001
 11
12145.560777999999
 21
6729.1304700000001
  0
LINE
  8
_0-2_LAYER1
  6
CONTINUOUS
 62
    1
 10
13845.560777999999
 20
6829.1304700000001
 11
13845.560777999999
 21
6729.1304700000001
  0
CIRCLE
  8
_0-2_LAYER1
  6
CONTINUOUS
 62
    1
 10
6995.560778
 20
6792.1304700000001
 40
20
  0
CIRCLE
  8
_0-2_LAYER1
  6
CONTINUOUS
 62
    1
 10
8995.5607779999991
 20
6792.1304700000001
 40
20
  0
CIRCLE
  8
_0-2_LAYER1
  6
CONTINUOUS
 62
    1
 10
10995.560777999999
 20
6792.1304700000001
 40
20
  0
CIRCLE
  8
_0-2_LAYER1
  6
CONTINUOUS
 62
    1
 10
12995.560777999999
 20
6792.1304700000001
 40
20
  0
CIRCLE
  8
_0-2_LAYER1
  6
CONTINUOUS
 62
    1
 10
13995.560777999999
 20
6864.3527539999995
 40
20
  0
CIRCLE
  8
_0-2_LAYER1
  6
CONTINUOUS
 62
    1
 10
7995.560778
 20
6864.3527539999995
 40
20
  0
CIRCLE
  8
_0-2_LAYER1
  6
CONTINUOUS
 62
    1
 10
9995.5607779999991
 20
6864.3527539999995
 40
20
  0
CIRCLE
  8
_0-2_LAYER1
  6
CONTINUOUS
 62
    1
 10
11995.560777999999
 20
6864.3527539999995
 40
20
  0
LINE
  8
_0-2_LAYER1
  6
CONTINUOUS
 62
    1
 10
6545.560778
 20
8014.1304700000001
 11
15445.560777999999
 21
8014.1304700000001
  0
CIRCLE
  8
_0-2_LAYER1
  6
CONTINUOUS
 62
    1
 10
14995.560777999999
 20
6792.1304700000001
 40
20
  0
CIRCLE
  8
_0-2_LAYER1
  6
CONTINUOUS
 62
    1
 10
6995.560778
 20
7912.1304700000001
 40
20
  0
CIRCLE
  8
_0-2_LAYER1
  6
CONTINUOUS
 62
    1
 10
8995.5607779999991
 20
7912.1304700000001
 40
20
  0
CIRCLE
  8
_0-2_LAYER1
  6
CONTINUOUS
 62
    1
 10
10995.560777999999
 20
7912.1304700000001
 40
20
  0
CIRCLE
  8
_0-2_LAYER1
  6
CONTINUOUS
 62
    1
 10
12995.560777999999
 20
7912.1304700000001
 40
20
  0
CIRCLE
  8
_0-2_LAYER1
  6
CONTINUOUS
 62
    1
 10
14995.560777999999
 20
7912.1304700000001
 40
20
  0
LINE
  8
_0-2_LAYER1
  6
CONTINUOUS
 62
    1
 10
14145.560777999999
 20
6829.1304700000001
 11
14145.560777999999
 21
6733.1304700000001
  0
LINE
  8
_0-2_LAYER1
  6
CENTER
 62
    1
 10
7995.560778
 20
9255.1304700000001
 11
7995.560778
 21
8844.1304700000001
  0
LINE
  8
_0-2_LAYER1
  6
CENTER
 62
    1
 10
9995.5607779999991
 20
8844.1304700000001
 11
9995.5607779999991
 21
9255.1304700000001
  0
LINE
  8
_0-2_LAYER1
  6
CENTER
 62
    1
 10
11995.560777999999
 20
9255.1304700000001
 11
11995.560777999999
 21
8844.1304700000001
  0
LINE
  8
_0-2_LAYER1
  6
CENTER
 62
    1
 10
13995.560777999999
 20
8844.1304700000001
 11
13995.560777999999
 21
9255.1304700000001
  0
TEXT
  8
_0-2_LAYER1
 62
    7
 10
8045.560778
 20
8286.1304700000001
 40
140
 41
0.8
 50
0
  1
釘穴5-φ4
  0
TEXT
  8
_0-2_LAYER1
 62
    7
 10
10027.569079000001
 20
6970.9876059999997
 40
140
 41
0.8
 50
0
  1
釘穴5-φ4
  0
LINE
  8
_0-2_LAYER1
  6
CONTINUOUS
 62
    1
 10
7036.5607780000009
 20
8040.1304700000001
 11
6981.5607780000009
 21
7901.1304700000001
  0
LINE
  8
_0-2_LAYER1
  6
CONTINUOUS
 62
    1
 10
6981.5607780000009
 20
7901.1304700000001
 11
8045.560778
 21
8286.1304700000001
  0
LINE
  8
_0-2_LAYER1
  6
CONTINUOUS
 62
    1
 10
8045.560778
 20
8286.1304700000001
 11
8518.0607779999991
 21
8286.1304700000001
  0
LINE
  8
_0-2_LAYER1
  6
CONTINUOUS
 62
    1
 10
10863.560777999999
 20
6760.1304700000001
 11
11011.560777999999
 21
6784.1304700000001
  0
LINE
  8
_0-2_LAYER1
  6
CONTINUOUS
 62
    1
 10
11011.560777999999
 20
6784.1304700000001
 11
10500.069079000001
 21
6970.9876059999997
  0
LINE
  8
_0-2_LAYER1
  6
CONTINUOUS
 62
    1
 10
10500.069079000001
 20
6970.9876059999997
 11
9937.0690790000008
 21
6970.9876059999997
  0
TEXT
  8
_0-2_LAYER1
 62
    7
 10
11502.560777999999
 20
8322.1304700000001
 40
140
 41
0.8
 50
0
  1
通気開口部10-50x20
  0
LINE
  8
_0-2_LAYER1
  6
CONTINUOUS
 62
    1
 10
10662.560777999999
 20
7489.1304700000001
 11
10654.560777999999
 21
7339.1304700000001
  0
LINE
  8
_0-2_LAYER1
  6
CONTINUOUS
 62
    1
 10
10654.560777999999
 20
7339.1304700000001
 11
11502.560777999999
 21
8322.1304700000001
  0
LINE
  8
_0-2_LAYER1
  6
CONTINUOUS
 62
    1
 10
11502.560777999999
 20
8322.1304700000001
 11
12447.560777999999
 21
8322.1304700000001
  0
LINE
  8
_0-2_LAYER1
  6
DASHED
 62
    1
 10
15345.560777999999
 20
7808.1304700000001
 11
15345.560777999999
 21
6729.1304700000001
  0
LINE
  8
_0-2_LAYER1
  6
CONTINUOUS
 62
    1
 10
10258.560777999999
 20
7818.1304700000001
 11
10211.560777999999
 21
7675.1304700000001
  0
LINE
  8
_0-2_LAYER1
  6
CONTINUOUS
 62
    1
 10
10211.560777999999
 20
7675.1304700000001
 11
11502.560777999999
 21
8322.1304700000001
  0
LINE
  8
_0-2_LAYER1
  6
CONTINUOUS
 62
    1
 10
6484.560778
 20
2433.1304700000001
 11
15484.560777999999
 21
2433.1304700000001
  0
LINE
  8
_0-2_LAYER1
  6
CONTINUOUS
 62
    1
 10
6484.560778
 20
2433.1304700000001
 11
6484.560778
 21
2233.1304700000001
  0
LINE
  8
_0-2_LAYER1
  6
CONTINUOUS
 62
    1
 10
6484.560778
 20
2233.1304700000001
 11
15484.560777999999
 21
2233.1304700000001
  0
LINE
  8
_0-2_LAYER1
  6
CONTINUOUS
 62
    1
 10
15484.560777999999
 20
2233.1304700000001
 11
15484.560777999999
 21
2433.1304700000001
  0
LINE
  8
_0-2_LAYER1
  6
CONTINUOUS
 62
    1
 10
6734.560778
 20
2433.1304700000001
 11
6734.560778
 21
2233.1304700000001
  0
LINE
  8
_0-2_LAYER1
  6
CONTINUOUS
 62
    1
 10
7234.560778
 20
2233.1304700000001
 11
7234.560778
 21
2433.1304700000001
  0
LINE
  8
_0-2_LAYER1
  6
CONTINUOUS
 62
    1
 10
7534.560778
 20
2433.1304700000001
 11
7534.560778
 21
2233.1304700000001
  0
LINE
  8
_0-2_LAYER1
  6
CONTINUOUS
 62
    1
 10
8034.560778
 20
2233.1304700000001
 11
8034.560778
 21
2433.1304700000001
  0
LINE
  8
_0-2_LAYER1
  6
CONTINUOUS
 62
    1
 10
8334.5607779999991
 20
2433.1304700000001
 11
8334.5607779999991
 21
2233.1304700000001
  0
LINE
  8
_0-2_LAYER1
  6
CONTINUOUS
 62
    1
 10
8834.5607779999991
 20
2233.1304700000001
 11
8834.5607779999991
 21
2433.1304700000001
  0
LINE
  8
_0-2_LAYER1
  6
CONTINUOUS
 62
    1
 10
9134.5607779999991
 20
2433.1304700000001
 11
9134.5607779999991
 21
2233.1304700000001
  0
LINE
  8
_0-2_LAYER1
  6
CONTINUOUS
 62
    1
 10
9634.5607779999991
 20
2233.1304700000001
 11
9634.5607779999991
 21
2433.1304700000001
  0
LINE
  8
_0-2_LAYER1
  6
CONTINUOUS
 62
    1
 10
9934.5607779999991
 20
2433.1304700000001
 11
9934.5607779999991
 21
2233.1304700000001
  0
LINE
  8
_0-2_LAYER1
  6
CONTINUOUS
 62
    1
 10
10434.560777999999
 20
2233.1304700000001
 11
10434.560777999999
 21
2433.1304700000001
  0
LINE
  8
_0-2_LAYER1
  6
CONTINUOUS
 62
    1
 10
10734.560777999999
 20
2433.1304700000001
 11
10734.560777999999
 21
2233.1304700000001
  0
LINE
  8
_0-2_LAYER1
  6
CONTINUOUS
 62
    1
 10
11234.560777999999
 20
2233.1304700000001
 11
11234.560777999999
 21
2433.1304700000001
  0
LINE
  8
_0-2_LAYER1
  6
CONTINUOUS
 62
    1
 10
11534.560777999999
 20
2433.1304700000001
 11
11534.560777999999
 21
2233.1304700000001
  0
LINE
  8
_0-2_LAYER1
  6
CONTINUOUS
 62
    1
 10
12034.560777999999
 20
2233.1304700000001
 11
12034.560777999999
 21
2433.1304700000001
  0
LINE
  8
_0-2_LAYER1
  6
CONTINUOUS
 62
    1
 10
12334.560777999999
 20
2433.1304700000001
 11
12334.560777999999
 21
2233.1304700000001
  0
LINE
  8
_0-2_LAYER1
  6
CONTINUOUS
 62
    1
 10
12834.560777999999
 20
2233.1304700000001
 11
12834.560777999999
 21
2433.1304700000001
  0
LINE
  8
_0-2_LAYER1
  6
CONTINUOUS
 62
    1
 10
13134.560777999999
 20
2433.1304700000001
 11
13134.560777999999
 21
2233.1304700000001
  0
LINE
  8
_0-2_LAYER1
  6
CONTINUOUS
 62
    1
 10
13634.560777999999
 20
2233.1304700000001
 11
13634.560777999999
 21
2433.1304700000001
  0
LINE
  8
_0-2_LAYER1
  6
CONTINUOUS
 62
    1
 10
13934.560777999999
 20
2433.1304700000001
 11
13934.560777999999
 21
2233.1304700000001
  0
LINE
  8
_0-2_LAYER1
  6
CONTINUOUS
 62
    1
 10
14434.560777999999
 20
2233.1304700000001
 11
14434.560777999999
 21
2433.1304700000001
  0
LINE
  8
_0-2_LAYER1
  6
CONTINUOUS
 62
    1
 10
14734.560777999999
 20
2433.1304700000001
 11
14734.560777999999
 21
2233.1304700000001
  0
LINE
  8
_0-2_LAYER1
  6
CONTINUOUS
 62
    1
 10
15234.560777999999
 20
2233.1304700000001
 11
15234.560777999999
 21
2433.1304700000001
  0
LINE
  8
_0-2_LAYER1
  6
CONTINUOUS
 62
    1
 10
6734.560778
 20
2353.1304700000001
 11
7234.560778
 21
2353.1304700000001
  0
LINE
  8
_0-2_LAYER1
  6
CONTINUOUS
 62
    1
 10
7534.560778
 20
2353.1304700000001
 11
8034.560778
 21
2353.1304700000001
  0
LINE
  8
_0-2_LAYER1
  6
CONTINUOUS
 62
    1
 10
8334.5607779999991
 20
2353.1304700000001
 11
8834.5607779999991
 21
2353.1304700000001
  0
LINE
  8
_0-2_LAYER1
  6
CONTINUOUS
 62
    1
 10
9134.5607779999991
 20
2353.1304700000001
 11
9634.5607779999991
 21
2353.1304700000001
  0
LINE
  8
_0-2_LAYER1
  6
CONTINUOUS
 62
    1
 10
9934.5607779999991
 20
2353.1304700000001
 11
10434.560777999999
 21
2353.1304700000001
  0
LINE
  8
_0-2_LAYER1
  6
CONTINUOUS
 62
    1
 10
10734.560777999999
 20
2353.1304700000001
 11
11234.560777999999
 21
2353.1304700000001
  0
LINE
  8
_0-2_LAYER1
  6
CONTINUOUS
 62
    1
 10
11534.560777999999
 20
2353.1304700000001
 11
12034.560777999999
 21
2353.1304700000001
  0
LINE
  8
_0-2_LAYER1
  6
CONTINUOUS
 62
    1
 10
12334.560777999999
 20
2353.1304700000001
 11
12834.560777999999
 21
2353.1304700000001
  0
LINE
  8
_0-2_LAYER1
  6
CONTINUOUS
 62
    1
 10
13134.560777999999
 20
2353.1304700000001
 11
13634.560777999999
 21
2353.1304700000001
  0
LINE
  8
_0-2_LAYER1
  6
CONTINUOUS
 62
    1
 10
13934.560777999999
 20
2353.1304700000001
 11
14434.560777999999
 21
2353.1304700000001
  0
LINE
  8
_0-2_LAYER1
  6
CONTINUOUS
 62
    1
 10
14734.560777999999
 20
2353.1304700000001
 11
15234.560777999999
 21
2353.1304700000001
  0
LINE
  8
_0-2_LAYER1
  6
CONTINUOUS
 62
    1
 10
15484.560777999999
 20
1979.1304700000001
 11
15484.560777999999
 21
1149.1304700000001
  0
LINE
  8
_0-2_LAYER1
  6
CONTINUOUS
 62
    1
 10
15484.560777999999
 20
1149.1304700000001
 11
6484.560778
 21
1149.1304700000001
  0
LINE
  8
_0-2_LAYER1
  6
CONTINUOUS
 62
    1
 10
6484.560778
 20
1979.1304700000001
 11
6484.560778
 21
1149.1304700000001
  0
LINE
  8
_0-2_LAYER1
  6
CONTINUOUS
 62
    1
 10
15484.560777999999
 20
1979.1304700000001
 11
6484.560778
 21
1979.1304700000001
  0
LINE
  8
_0-2_LAYER1
  6
DASHED
 62
    1
 10
6445.560778
 20
6902.9710359999999
 11
15445.560777999999
 21
6902.9710359999999
  0
LINE
  8
_0-2_LAYER1
  6
DASHED
 62
    1
 10
14645.560777999999
 20
7608.1304700000001
 11
14645.560777999999
 21
7808.1304700000001
  0
LINE
  8
_0-2_LAYER1
  6
DASHED
 62
    1
 10
14645.560777999999
 20
7808.1304700000001
 11
15145.560777999999
 21
7808.1304700000001
  0
LINE
  8
_0-2_LAYER1
  6
DASHED
 62
    1
 10
15145.560777999999
 20
7808.1304700000001
 11
15145.560777999999
 21
7608.1304700000001
  0
LINE
  8
_0-2_LAYER1
  6
DASHED
 62
    1
 10
15145.560777999999
 20
7608.1304700000001
 11
14645.560777999999
 21
7608.1304700000001
  0
LINE
  8
_0-2_LAYER1
  6
DASHED
 62
    1
 10
13845.560777999999
 20
7608.1304700000001
 11
13845.560777999999
 21
7808.1304700000001
  0
LINE
  8
_0-2_LAYER1
  6
DASHED
 62
    1
 10
13845.560777999999
 20
7808.1304700000001
 11
14345.560777999999
 21
7808.1304700000001
  0
LINE
  8
_0-2_LAYER1
  6
DASHED
 62
    1
 10
14345.560777999999
 20
7808.1304700000001
 11
14345.560777999999
 21
7608.1304700000001
  0
LINE
  8
_0-2_LAYER1
  6
DASHED
 62
    1
 10
14345.560777999999
 20
7608.1304700000001
 11
13845.560777999999
 21
7608.1304700000001
  0
LINE
  8
_0-2_LAYER1
  6
DASHED
 62
    1
 10
13045.560777999999
 20
7608.1304700000001
 11
13045.560777999999
 21
7808.1304700000001
  0
LINE
  8
_0-2_LAYER1
  6
DASHED
 62
    1
 10
13045.560777999999
 20
7808.1304700000001
 11
13545.560777999999
 21
7808.1304700000001
  0
LINE
  8
_0-2_LAYER1
  6
DASHED
 62
    1
 10
13545.560777999999
 20
7808.1304700000001
 11
13545.560777999999
 21
7608.1304700000001
  0
LINE
  8
_0-2_LAYER1
  6
DASHED
 62
    1
 10
13545.560777999999
 20
7608.1304700000001
 11
13045.560777999999
 21
7608.1304700000001
  0
LINE
  8
_0-2_LAYER1
  6
DASHED
 62
    1
 10
12245.560777999999
 20
7608.1304700000001
 11
12245.560777999999
 21
7808.1304700000001
  0
LINE
  8
_0-2_LAYER1
  6
DASHED
 62
    1
 10
12245.560777999999
 20
7808.1304700000001
 11
12745.560777999999
 21
7808.1304700000001
  0
LINE
  8
_0-2_LAYER1
  6
DASHED
 62
    1
 10
12745.560777999999
 20
7808.1304700000001
 11
12745.560777999999
 21
7608.1304700000001
  0
LINE
  8
_0-2_LAYER1
  6
DASHED
 62
    1
 10
12745.560777999999
 20
7608.1304700000001
 11
12245.560777999999
 21
7608.1304700000001
  0
LINE
  8
_0-2_LAYER1
  6
DASHED
 62
    1
 10
11445.560777999999
 20
7608.1304700000001
 11
11445.560777999999
 21
7808.1304700000001
  0
LINE
  8
_0-2_LAYER1
  6
DASHED
 62
    1
 10
11445.560777999999
 20
7808.1304700000001
 11
11945.560777999999
 21
7808.1304700000001
  0
LINE
  8
_0-2_LAYER1
  6
DASHED
 62
    1
 10
11945.560777999999
 20
7808.1304700000001
 11
11945.560777999999
 21
7608.1304700000001
  0
LINE
  8
_0-2_LAYER1
  6
DASHED
 62
    1
 10
11945.560777999999
 20
7608.1304700000001
 11
11445.560777999999
 21
7608.1304700000001
  0
LINE
  8
_0-2_LAYER1
  6
DASHED
 62
    1
 10
10645.560777999999
 20
7608.1304700000001
 11
10645.560777999999
 21
7808.1304700000001
  0
LINE
  8
_0-2_LAYER1
  6
DASHED
 62
    1
 10
10645.560777999999
 20
7808.1304700000001
 11
11145.560777999999
 21
7808.1304700000001
  0
LINE
  8
_0-2_LAYER1
  6
DASHED
 62
    1
 10
11145.560777999999
 20
7808.1304700000001
 11
11145.560777999999
 21
7608.1304700000001
  0
LINE
  8
_0-2_LAYER1
  6
DASHED
 62
    1
 10
11145.560777999999
 20
7608.1304700000001
 11
10645.560777999999
 21
7608.1304700000001
  0
LINE
  8
_0-2_LAYER1
  6
DASHED
 62
    1
 10
9845.5607779999991
 20
7608.1304700000001
 11
9845.5607779999991
 21
7808.1304700000001
  0
LINE
  8
_0-2_LAYER1
  6
DASHED
 62
    1
 10
9845.5607779999991
 20
7808.1304700000001
 11
10345.560777999999
 21
7808.1304700000001
  0
LINE
  8
_0-2_LAYER1
  6
DASHED
 62
    1
 10
10345.560777999999
 20
7808.1304700000001
 11
10345.560777999999
 21
7608.1304700000001
  0
LINE
  8
_0-2_LAYER1
  6
DASHED
 62
    1
 10
10345.560777999999
 20
7608.1304700000001
 11
9845.5607779999991
 21
7608.1304700000001
  0
LINE
  8
_0-2_LAYER1
  6
DASHED
 62
    1
 10
9045.5607779999991
 20
7608.1304700000001
 11
9045.5607779999991
 21
7808.1304700000001
  0
LINE
  8
_0-2_LAYER1
  6
DASHED
 62
    1
 10
9045.5607779999991
 20
7808.1304700000001
 11
9545.5607779999991
 21
7808.1304700000001
  0
LINE
  8
_0-2_LAYER1
  6
DASHED
 62
    1
 10
9545.5607779999991
 20
7808.1304700000001
 11
9545.5607779999991
 21
7608.1304700000001
  0
LINE
  8
_0-2_LAYER1
  6
DASHED
 62
    1
 10
9545.5607779999991
 20
7608.1304700000001
 11
9045.5607779999991
 21
7608.1304700000001
  0
LINE
  8
_0-2_LAYER1
  6
DASHED
 62
    1
 10
8245.5607779999991
 20
7608.1304700000001
 11
8245.5607779999991
 21
7808.1304700000001
  0
LINE
  8
_0-2_LAYER1
  6
DASHED
 62
    1
 10
8245.5607779999991
 20
7808.1304700000001
 11
8745.5607779999991
 21
7808.1304700000001
  0
LINE
  8
_0-2_LAYER1
  6
DASHED
 62
    1
 10
8745.5607779999991
 20
7808.1304700000001
 11
8745.5607779999991
 21
7608.1304700000001
  0
LINE
  8
_0-2_LAYER1
  6
DASHED
 62
    1
 10
8745.5607779999991
 20
7608.1304700000001
 11
8245.5607779999991
 21
7608.1304700000001
  0
LINE
  8
_0-2_LAYER1
  6
DASHED
 62
    1
 10
7445.560778
 20
7608.1304700000001
 11
7445.560778
 21
7808.1304700000001
  0
LINE
  8
_0-2_LAYER1
  6
DASHED
 62
    1
 10
7445.560778
 20
7808.1304700000001
 11
7945.560778
 21
7808.1304700000001
  0
LINE
  8
_0-2_LAYER1
  6
DASHED
 62
    1
 10
7945.560778
 20
7808.1304700000001
 11
7945.560778
 21
7608.1304700000001
  0
LINE
  8
_0-2_LAYER1
  6
DASHED
 62
    1
 10
7945.560778
 20
7608.1304700000001
 11
7445.560778
 21
7608.1304700000001
  0
LINE
  8
_0-2_LAYER1
  6
DASHED
 62
    1
 10
6645.560778
 20
7608.1304700000001
 11
6645.560778
 21
7808.1304700000001
  0
LINE
  8
_0-2_LAYER1
  6
DASHED
 62
    1
 10
6645.560778
 20
7808.1304700000001
 11
7145.560778
 21
7808.1304700000001
  0
LINE
  8
_0-2_LAYER1
  6
DASHED
 62
    1
 10
7145.560778
 20
7808.1304700000001
 11
7145.560778
 21
7608.1304700000001
  0
LINE
  8
_0-2_LAYER1
  6
DASHED
 62
    1
 10
7145.560778
 20
7608.1304700000001
 11
6645.560778
 21
7608.1304700000001
  0
LINE
  8
_0-2_LAYER1
  6
CONTINUOUS
 62
    1
 10
7245.560778
 20
7218.1304700000001
 11
7245.560778
 21
7418.1304700000001
  0
LINE
  8
_0-2_LAYER1
  6
CONTINUOUS
 62
    1
 10
7245.560778
 20
7418.1304700000001
 11
7745.560778
 21
7418.1304700000001
  0
LINE
  8
_0-2_LAYER1
  6
CONTINUOUS
 62
    1
 10
7745.560778
 20
7418.1304700000001
 11
7745.560778
 21
7218.1304700000001
  0
LINE
  8
_0-2_LAYER1
  6
CONTINUOUS
 62
    1
 10
7745.560778
 20
7218.1304700000001
 11
7245.560778
 21
7218.1304700000001
  0
LINE
  8
_0-2_LAYER1
  6
CONTINUOUS
 62
    1
 10
8045.560778
 20
7218.1304700000001
 11
8045.560778
 21
7418.1304700000001
  0
LINE
  8
_0-2_LAYER1
  6
CONTINUOUS
 62
    1
 10
8045.560778
 20
7418.1304700000001
 11
8545.5607779999991
 21
7418.1304700000001
  0
LINE
  8
_0-2_LAYER1
  6
CONTINUOUS
 62
    1
 10
8545.5607779999991
 20
7418.1304700000001
 11
8545.5607779999991
 21
7218.1304700000001
  0
LINE
  8
_0-2_LAYER1
  6
CONTINUOUS
 62
    1
 10
8545.5607779999991
 20
7218.1304700000001
 11
8045.560778
 21
7218.1304700000001
  0
LINE
  8
_0-2_LAYER1
  6
CONTINUOUS
 62
    1
 10
8845.5607779999991
 20
7218.1304700000001
 11
8845.5607779999991
 21
7418.1304700000001
  0
LINE
  8
_0-2_LAYER1
  6
CONTINUOUS
 62
    1
 10
8845.5607779999991
 20
7418.1304700000001
 11
9345.5607779999991
 21
7418.1304700000001
  0
LINE
  8
_0-2_LAYER1
  6
CONTINUOUS
 62
    1
 10
9345.5607779999991
 20
7418.1304700000001
 11
9345.5607779999991
 21
7218.1304700000001
  0
LINE
  8
_0-2_LAYER1
  6
CONTINUOUS
 62
    1
 10
9345.5607779999991
 20
7218.1304700000001
 11
8845.5607779999991
 21
7218.1304700000001
  0
LINE
  8
_0-2_LAYER1
  6
CONTINUOUS
 62
    1
 10
9645.5607779999991
 20
7218.1304700000001
 11
9645.5607779999991
 21
7418.1304700000001
  0
LINE
  8
_0-2_LAYER1
  6
CONTINUOUS
 62
    1
 10
9645.5607779999991
 20
7418.1304700000001
 11
10145.560777999999
 21
7418.1304700000001
  0
LINE
  8
_0-2_LAYER1
  6
CONTINUOUS
 62
    1
 10
10145.560777999999
 20
7418.1304700000001
 11
10145.560777999999
 21
7218.1304700000001
  0
LINE
  8
_0-2_LAYER1
  6
CONTINUOUS
 62
    1
 10
10145.560777999999
 20
7218.1304700000001
 11
9645.5607779999991
 21
7218.1304700000001
  0
LINE
  8
_0-2_LAYER1
  6
CONTINUOUS
 62
    1
 10
10445.560777999999
 20
7218.1304700000001
 11
10445.560777999999
 21
7418.1304700000001
  0
LINE
  8
_0-2_LAYER1
  6
CONTINUOUS
 62
    1
 10
10445.560777999999
 20
7418.1304700000001
 11
10945.560777999999
 21
7418.1304700000001
  0
LINE
  8
_0-2_LAYER1
  6
CONTINUOUS
 62
    1
 10
10945.560777999999
 20
7418.1304700000001
 11
10945.560777999999
 21
7218.1304700000001
  0
LINE
  8
_0-2_LAYER1
  6
CONTINUOUS
 62
    1
 10
10945.560777999999
 20
7218.1304700000001
 11
10445.560777999999
 21
7218.1304700000001
  0
LINE
  8
_0-2_LAYER1
  6
CONTINUOUS
 62
    1
 10
11245.560777999999
 20
7218.1304700000001
 11
11245.560777999999
 21
7418.1304700000001
  0
LINE
  8
_0-2_LAYER1
  6
CONTINUOUS
 62
    1
 10
11245.560777999999
 20
7418.1304700000001
 11
11745.560777999999
 21
7418.1304700000001
  0
LINE
  8
_0-2_LAYER1
  6
CONTINUOUS
 62
    1
 10
11745.560777999999
 20
7418.1304700000001
 11
11745.560777999999
 21
7218.1304700000001
  0
LINE
  8
_0-2_LAYER1
  6
CONTINUOUS
 62
    1
 10
11745.560777999999
 20
7218.1304700000001
 11
11245.560777999999
 21
7218.1304700000001
  0
LINE
  8
_0-2_LAYER1
  6
CONTINUOUS
 62
    1
 10
12045.560777999999
 20
7218.1304700000001
 11
12045.560777999999
 21
7418.1304700000001
  0
LINE
  8
_0-2_LAYER1
  6
CONTINUOUS
 62
    1
 10
12045.560777999999
 20
7418.1304700000001
 11
12545.560777999999
 21
7418.1304700000001
  0
LINE
  8
_0-2_LAYER1
  6
CONTINUOUS
 62
    1
 10
12545.560777999999
 20
7418.1304700000001
 11
12545.560777999999
 21
7218.1304700000001
  0
LINE
  8
_0-2_LAYER1
  6
CONTINUOUS
 62
    1
 10
12545.560777999999
 20
7218.1304700000001
 11
12045.560777999999
 21
7218.1304700000001
  0
LINE
  8
_0-2_LAYER1
  6
CONTINUOUS
 62
    1
 10
12845.560777999999
 20
7218.1304700000001
 11
12845.560777999999
 21
7418.1304700000001
  0
LINE
  8
_0-2_LAYER1
  6
CONTINUOUS
 62
    1
 10
12845.560777999999
 20
7418.1304700000001
 11
13345.560777999999
 21
7418.1304700000001
  0
LINE
  8
_0-2_LAYER1
  6
CONTINUOUS
 62
    1
 10
13345.560777999999
 20
7418.1304700000001
 11
13345.560777999999
 21
7218.1304700000001
  0
LINE
  8
_0-2_LAYER1
  6
CONTINUOUS
 62
    1
 10
13345.560777999999
 20
7218.1304700000001
 11
12845.560777999999
 21
7218.1304700000001
  0
LINE
  8
_0-2_LAYER1
  6
CONTINUOUS
 62
    1
 10
13645.560777999999
 20
7218.1304700000001
 11
13645.560777999999
 21
7418.1304700000001
  0
LINE
  8
_0-2_LAYER1
  6
CONTINUOUS
 62
    1
 10
13645.560777999999
 20
7418.1304700000001
 11
14145.560777999999
 21
7418.1304700000001
  0
LINE
  8
_0-2_LAYER1
  6
CONTINUOUS
 62
    1
 10
14145.560777999999
 20
7418.1304700000001
 11
14145.560777999999
 21
7218.1304700000001
  0
LINE
  8
_0-2_LAYER1
  6
CONTINUOUS
 62
    1
 10
14145.560777999999
 20
7218.1304700000001
 11
13645.560777999999
 21
7218.1304700000001
  0
LINE
  8
_0-2_LAYER1
  6
CONTINUOUS
 62
    1
 10
14445.560777999999
 20
7218.1304700000001
 11
14445.560777999999
 21
7418.1304700000001
  0
LINE
  8
_0-2_LAYER1
  6
CONTINUOUS
 62
    1
 10
14445.560777999999
 20
7418.1304700000001
 11
14945.560777999999
 21
7418.1304700000001
  0
LINE
  8
_0-2_LAYER1
  6
CONTINUOUS
 62
    1
 10
14945.560777999999
 20
7418.1304700000001
 11
14945.560777999999
 21
7218.1304700000001
  0
LINE
  8
_0-2_LAYER1
  6
CONTINUOUS
 62
    1
 10
14945.560777999999
 20
7218.1304700000001
 11
14445.560777999999
 21
7218.1304700000001
  0
LINE
  8
_0-2_LAYER1
  6
CONTINUOUS
 62
    1
 10
15445.560777999999
 20
10588.13047
 11
15445.560777999999
 21
10388.13047
  0
LINE
  8
_0-2_LAYER1
  6
CONTINUOUS
 62
    1
 10
14995.560777999999
 20
10588.13047
 11
15445.560777999999
 21
10588.13047
  0
LINE
  8
_0-2_LAYER1
  6
CONTINUOUS
 62
    1
 10
14995.560777999999
 20
10588.13047
 11
14995.560777999999
 21
10388.13047
  0
LINE
  8
_0-2_LAYER1
  6
CONTINUOUS
 62
    1
 10
14995.560777999999
 20
10588.13047
 11
14105.560777999999
 21
10588.13047
  0
LINE
  8
_0-2_LAYER1
  6
CONTINUOUS
 62
    1
 10
14105.560777999999
 20
10588.13047
 11
14105.560777999999
 21
10388.13047
  0
LINE
  8
_0-2_LAYER1
  6
CONTINUOUS
 62
    1
 10
13215.560777999999
 20
10588.13047
 11
13215.560777999999
 21
10388.13047
  0
LINE
  8
_0-2_LAYER1
  6
CONTINUOUS
 62
    1
 10
14105.560777999999
 20
10588.13047
 11
13215.560777999999
 21
10588.13047
  0
LINE
  8
_0-2_LAYER1
  6
CONTINUOUS
 62
    1
 10
12325.560777999999
 20
10588.13047
 11
12325.560777999999
 21
10388.13047
  0
LINE
  8
_0-2_LAYER1
  6
CONTINUOUS
 62
    1
 10
13215.560777999999
 20
10588.13047
 11
12325.560777999999
 21
10588.13047
  0
LINE
  8
_0-2_LAYER1
  6
CONTINUOUS
 62
    1
 10
11435.560777999999
 20
10588.13047
 11
11435.560777999999
 21
10388.13047
  0
LINE
  8
_0-2_LAYER1
  6
CONTINUOUS
 62
    1
 10
12325.560777999999
 20
10588.13047
 11
11435.560777999999
 21
10588.13047
  0
LINE
  8
_0-2_LAYER1
  6
CONTINUOUS
 62
    1
 10
11435.560777999999
 20
10588.13047
 11
10545.560777999999
 21
10588.13047
  0
LINE
  8
_0-2_LAYER1
  6
CONTINUOUS
 62
    1
 10
10545.560777999999
 20
10588.13047
 11
10545.560777999999
 21
10388.13047
  0
LINE
  8
_0-2_LAYER1
  6
CONTINUOUS
 62
    1
 10
9655.5607779999991
 20
10588.13047
 11
9655.5607779999991
 21
10388.13047
  0
LINE
  8
_0-2_LAYER1
  6
CONTINUOUS
 62
    1
 10
10545.560777999999
 20
10588.13047
 11
9655.5607779999991
 21
10588.13047
  0
LINE
  8
_0-2_LAYER1
  6
CONTINUOUS
 62
    1
 10
9655.5607779999991
 20
10588.13047
 11
8765.5607779999991
 21
10588.13047
  0
LINE
  8
_0-2_LAYER1
  6
CONTINUOUS
 62
    1
 10
8765.5607779999991
 20
10588.13047
 11
8765.5607779999991
 21
10388.13047
  0
LINE
  8
_0-2_LAYER1
  6
CONTINUOUS
 62
    1
 10
8765.5607779999991
 20
10588.13047
 11
7875.560778
 21
10588.13047
  0
LINE
  8
_0-2_LAYER1
  6
CONTINUOUS
 62
    1
 10
7875.560778
 20
10588.13047
 11
7875.560778
 21
10388.13047
  0
LINE
  8
_0-2_LAYER1
  6
CONTINUOUS
 62
    1
 10
7875.560778
 20
10588.13047
 11
6985.560778
 21
10588.13047
  0
LINE
  8
_0-2_LAYER1
  6
CONTINUOUS
 62
    1
 10
6985.560778
 20
10588.13047
 11
6985.560778
 21
10388.13047
  0
LINE
  8
_0-2_LAYER1
  6
CONTINUOUS
 62
    1
 10
6545.560778
 20
10588.13047
 11
6545.560778
 21
10388.13047
  0
LINE
  8
_0-2_LAYER1
  6
CONTINUOUS
 62
    1
 10
6985.560778
 20
10588.13047
 11
6545.560778
 21
10588.13047
  0
LINE
  8
_0-2_LAYER1
  6
CONTINUOUS
 62
    1
 10
6445.560778
 20
10788.13047
 11
6445.560778
 21
10388.13047
  0
LINE
  8
_0-2_LAYER1
  6
CONTINUOUS
 62
    1
 10
6445.560778
 20
10788.13047
 11
6545.560778
 21
10788.13047
  0
LINE
  8
_0-2_LAYER1
  6
CONTINUOUS
 62
    1
 10
6545.560778
 20
10788.13047
 11
6545.560778
 21
10588.13047
  0
LINE
  8
_0-2_LAYER1
  6
CONTINUOUS
 62
    1
 10
15445.560777999999
 20
10788.13047
 11
15445.560777999999
 21
10588.13047
  0
LINE
  8
_0-2_LAYER1
  6
CONTINUOUS
 62
    1
 10
6545.560778
 20
10788.13047
 11
15445.560777999999
 21
10788.13047
  0
LINE
  8
_0-2_LAYER1
  6
CONTINUOUS
 62
    1
 10
6545.560778
 20
8728.1304700000001
 11
6545.560778
 21
8928.1304700000001
  0
LINE
  8
_0-2_LAYER1
  6
CONTINUOUS
 62
    1
 10
6545.560778
 20
8728.1304700000001
 11
7995.560778
 21
8728.1304700000001
  0
LINE
  8
_0-2_LAYER1
  6
CONTINUOUS
 62
    1
 10
7995.560778
 20
8728.1304700000001
 11
7995.560778
 21
8928.1304700000001
  0
LINE
  8
_0-2_LAYER1
  6
CONTINUOUS
 62
    1
 10
7995.560778
 20
8728.1304700000001
 11
9995.5607779999991
 21
8728.1304700000001
  0
LINE
  8
_0-2_LAYER1
  6
CONTINUOUS
 62
    1
 10
9995.5607779999991
 20
8728.1304700000001
 11
9995.5607779999991
 21
8928.1304700000001
  0
LINE
  8
_0-2_LAYER1
  6
CONTINUOUS
 62
    1
 10
9995.5607779999991
 20
8728.1304700000001
 11
11995.560777999999
 21
8728.1304700000001
  0
LINE
  8
_0-2_LAYER1
  6
CONTINUOUS
 62
    1
 10
11995.560777999999
 20
8728.1304700000001
 11
11995.560777999999
 21
8928.1304700000001
  0
LINE
  8
_0-2_LAYER1
  6
CONTINUOUS
 62
    1
 10
13995.560777999999
 20
8728.1304700000001
 11
13995.560777999999
 21
8928.1304700000001
  0
LINE
  8
_0-2_LAYER1
  6
CONTINUOUS
 62
    1
 10
11995.560777999999
 20
8728.1304700000001
 11
13995.560777999999
 21
8728.1304700000001
  0
LINE
  8
_0-2_LAYER1
  6
CONTINUOUS
 62
    1
 10
15445.560777999999
 20
8728.1304700000001
 11
15445.560777999999
 21
8928.1304700000001
  0
LINE
  8
_0-2_LAYER1
  6
CONTINUOUS
 62
    1
 10
13995.560777999999
 20
8728.1304700000001
 11
15445.560777999999
 21
8728.1304700000001
  0
LINE
  8
_0-2_LAYER1
  6
CONTINUOUS
 62
    1
 10
9845.5607779999991
 20
8804.1304700000001
 11
9845.5607779999991
 21
9004.1304700000001
  0
LINE
  8
_0-2_LAYER1
  6
CONTINUOUS
 62
    1
 10
10145.560777999999
 20
8804.1304700000001
 11
10145.560777999999
 21
9004.1304700000001
  0
LINE
  8
_0-2_LAYER1
  6
CONTINUOUS
 62
    1
 10
9845.5607779999991
 20
8804.1304700000001
 11
10145.560777999999
 21
8804.1304700000001
  0
LINE
  8
_0-2_LAYER1
  6
CONTINUOUS
 62
    1
 10
10451.164843999999
 20
9055.1304700000001
 11
10251.164843999999
 21
9055.1304700000001
  0
LINE
  8
_0-2_LAYER1
  6
CONTINUOUS
 62
    1
 10
10451.164843999999
 20
9255.1304700000001
 11
10251.164843999999
 21
9255.1304700000001
  0
LINE
  8
_0-2_LAYER1
  6
CONTINUOUS
 62
    1
 10
10451.164843999999
 20
9055.1304700000001
 11
10451.164843999999
 21
9255.1304700000001
  0
LINE
  8
_0-2_LAYER1
  6
CONTINUOUS
 62
    1
 10
6484.560778
 20
2888.1304700000001
 11
6484.560778
 21
2688.1304700000001
  0
LINE
  8
_0-2_LAYER1
  6
CONTINUOUS
 62
    1
 10
6734.560778
 20
2888.1304700000001
 11
6734.560778
 21
2688.1304700000001
  0
LINE
  8
_0-2_LAYER1
  6
CONTINUOUS
 62
    1
 10
6484.560778
 20
2888.1304700000001
 11
6734.560778
 21
2888.1304700000001
  0
TEXT
  8
_0-2_LAYER1
 62
    7
 10
6557.060778
 20
2908.1304700000001
 40
140
 41
0.8
 50
0
  1
25
  0
LINE
  8
_0-2_LAYER1
  6
CONTINUOUS
 62
    1
 10
7234.560778
 20
2888.1304700000001
 11
7234.560778
 21
2688.1304700000001
  0
LINE
  8
_0-2_LAYER1
  6
CONTINUOUS
 62
    1
 10
6734.560778
 20
2888.1304700000001
 11
7234.560778
 21
2888.1304700000001
  0
TEXT
  8
_0-2_LAYER1
 62
    7
 10
6932.060778
 20
2908.1304700000001
 40
140
 41
0.8
 50
0
  1
50
  0
LINE
  8
_0-2_LAYER1
  6
CONTINUOUS
 62
    1
 10
7234.560778
 20
2888.1304700000001
 11
7534.560778
 21
2888.1304700000001
  0
TEXT
  8
_0-2_LAYER1
 62
    7
 10
7332.060778
 20
2908.1304700000001
 40
140
 41
0.8
 50
0
  1
30
  0
LINE
  8
_0-2_LAYER1
  6
CONTINUOUS
 62
    1
 10
7534.560778
 20
2888.1304700000001
 11
7534.560778
 21
2688.1304700000001
  0
LINE
  8
_0-2_LAYER1
  6
CONTINUOUS
 62
    1
 10
8034.560778
 20
2888.1304700000001
 11
8034.560778
 21
2688.1304700000001
  0
LINE
  8
_0-2_LAYER1
  6
CONTINUOUS
 62
    1
 10
7534.560778
 20
2888.1304700000001
 11
8034.560778
 21
2888.1304700000001
  0
TEXT
  8
_0-2_LAYER1
 62
    7
 10
7732.060778
 20
2908.1304700000001
 40
140
 41
0.8
 50
0
  1
50
  0
LINE
  8
_0-2_LAYER1
  6
CONTINUOUS
 62
    1
 10
8034.560778
 20
2888.1304700000001
 11
8334.5607779999991
 21
2888.1304700000001
  0
TEXT
  8
_0-2_LAYER1
 62
    7
 10
8132.060778
 20
2908.1304700000001
 40
140
 41
0.8
 50
0
  1
30
  0
LINE
  8
_0-2_LAYER1
  6
CONTINUOUS
 62
    1
 10
8334.5607779999991
 20
2888.1304700000001
 11
8334.5607779999991
 21
2688.1304700000001
  0
LINE
  8
_0-2_LAYER1
  6
CONTINUOUS
 62
    1
 10
8834.5607779999991
 20
2888.1304700000001
 11
8834.5607779999991
 21
2688.1304700000001
  0
LINE
  8
_0-2_LAYER1
  6
CONTINUOUS
 62
    1
 10
8334.5607779999991
 20
2888.1304700000001
 11
8834.5607779999991
 21
2888.1304700000001
  0
TEXT
  8
_0-2_LAYER1
 62
    7
 10
8532.0607779999991
 20
2908.1304700000001
 40
140
 41
0.8
 50
0
  1
50
  0
LINE
  8
_0-2_LAYER1
  6
CONTINUOUS
 62
    1
 10
8834.5607779999991
 20
2888.1304700000001
 11
9134.5607779999991
 21
2888.1304700000001
  0
TEXT
  8
_0-2_LAYER1
 62
    7
 10
8932.0607779999991
 20
2908.1304700000001
 40
140
 41
0.8
 50
0
  1
30
  0
LINE
  8
_0-2_LAYER1
  6
CONTINUOUS
 62
    1
 10
9134.5607779999991
 20
2888.1304700000001
 11
9134.5607779999991
 21
2688.1304700000001
  0
LINE
  8
_0-2_LAYER1
  6
CONTINUOUS
 62
    1
 10
9634.5607779999991
 20
2888.1304700000001
 11
9634.5607779999991
 21
2688.1304700000001
  0
LINE
  8
_0-2_LAYER1
  6
CONTINUOUS
 62
    1
 10
9134.5607779999991
 20
2888.1304700000001
 11
9634.5607779999991
 21
2888.1304700000001
  0
TEXT
  8
_0-2_LAYER1
 62
    7
 10
9332.0607779999991
 20
2908.1304700000001
 40
140
 41
0.8
 50
0
  1
50
  0
LINE
  8
_0-2_LAYER1
  6
CONTINUOUS
 62
    1
 10
9934.5607779999991
 20
2888.1304700000001
 11
9934.5607779999991
 21
2688.1304700000001
  0
LINE
  8
_0-2_LAYER1
  6
CONTINUOUS
 62
    1
 10
9634.5607779999991
 20
2888.1304700000001
 11
9934.5607779999991
 21
2888.1304700000001
  0
TEXT
  8
_0-2_LAYER1
 62
    7
 10
9732.0607779999991
 20
2908.1304700000001
 40
140
 41
0.8
 50
0
  1
30
  0
LINE
  8
_0-2_LAYER1
  6
CONTINUOUS
 62
    1
 10
10434.560777999999
 20
2888.1304700000001
 11
10434.560777999999
 21
2688.1304700000001
  0
LINE
  8
_0-2_LAYER1
  6
CONTINUOUS
 62
    1
 10
9934.5607779999991
 20
2888.1304700000001
 11
10434.560777999999
 21
2888.1304700000001
  0
TEXT
  8
_0-2_LAYER1
 62
    7
 10
10132.060777999999
 20
2908.1304700000001
 40
140
 41
0.8
 50
0
  1
50
  0
LINE
  8
_0-2_LAYER1
  6
CONTINUOUS
 62
    1
 10
10434.560777999999
 20
2888.1304700000001
 11
10734.560777999999
 21
2888.1304700000001
  0
TEXT
  8
_0-2_LAYER1
 62
    7
 10
10532.060777999999
 20
2908.1304700000001
 40
140
 41
0.8
 50
0
  1
30
  0
LINE
  8
_0-2_LAYER1
  6
CONTINUOUS
 62
    1
 10
10734.560777999999
 20
2888.1304700000001
 11
10734.560777999999
 21
2688.1304700000001
  0
LINE
  8
_0-2_LAYER1
  6
CONTINUOUS
 62
    1
 10
10734.560777999999
 20
2888.1304700000001
 11
11234.560777999999
 21
2888.1304700000001
  0
TEXT
  8
_0-2_LAYER1
 62
    7
 10
10932.060777999999
 20
2908.1304700000001
 40
140
 41
0.8
 50
0
  1
50
  0
LINE
  8
_0-2_LAYER1
  6
CONTINUOUS
 62
    1
 10
11234.560777999999
 20
2888.1304700000001
 11
11234.560777999999
 21
2688.1304700000001
  0
LINE
  8
_0-2_LAYER1
  6
CONTINUOUS
 62
    1
 10
11234.560777999999
 20
2888.1304700000001
 11
11534.560777999999
 21
2888.1304700000001
  0
TEXT
  8
_0-2_LAYER1
 62
    7
 10
11332.060777999999
 20
2908.1304700000001
 40
140
 41
0.8
 50
0
  1
30
  0
LINE
  8
_0-2_LAYER1
  6
CONTINUOUS
 62
    1
 10
11534.560777999999
 20
2888.1304700000001
 11
11534.560777999999
 21
2688.1304700000001
  0
LINE
  8
_0-2_LAYER1
  6
CONTINUOUS
 62
    1
 10
12034.560777999999
 20
2888.1304700000001
 11
12034.560777999999
 21
2688.1304700000001
  0
LINE
  8
_0-2_LAYER1
  6
CONTINUOUS
 62
    1
 10
11534.560777999999
 20
2888.1304700000001
 11
12034.560777999999
 21
2888.1304700000001
  0
TEXT
  8
_0-2_LAYER1
 62
    7
 10
11732.060777999999
 20
2908.1304700000001
 40
140
 41
0.8
 50
0
  1
50
  0
LINE
  8
_0-2_LAYER1
  6
CONTINUOUS
 62
    1
 10
12334.560777999999
 20
2888.1304700000001
 11
12334.560777999999
 21
2688.1304700000001
  0
LINE
  8
_0-2_LAYER1
  6
CONTINUOUS
 62
    1
 10
12034.560777999999
 20
2888.1304700000001
 11
12334.560777999999
 21
2888.1304700000001
  0
TEXT
  8
_0-2_LAYER1
 62
    7
 10
12132.060777999999
 20
2908.1304700000001
 40
140
 41
0.8
 50
0
  1
30
  0
LINE
  8
_0-2_LAYER1
  6
CONTINUOUS
 62
    1
 10
12334.560777999999
 20
2888.1304700000001
 11
12834.560777999999
 21
2888.1304700000001
  0
TEXT
  8
_0-2_LAYER1
 62
    7
 10
12532.060777999999
 20
2908.1304700000001
 40
140
 41
0.8
 50
0
  1
50
  0
LINE
  8
_0-2_LAYER1
  6
CONTINUOUS
 62
    1
 10
12834.560777999999
 20
2888.1304700000001
 11
12834.560777999999
 21
2688.1304700000001
  0
LINE
  8
_0-2_LAYER1
  6
CONTINUOUS
 62
    1
 10
13134.560777999999
 20
2888.1304700000001
 11
13134.560777999999
 21
2688.1304700000001
  0
LINE
  8
_0-2_LAYER1
  6
CONTINUOUS
 62
    1
 10
12834.560777999999
 20
2888.1304700000001
 11
13134.560777999999
 21
2888.1304700000001
  0
TEXT
  8
_0-2_LAYER1
 62
    7
 10
12932.060777999999
 20
2908.1304700000001
 40
140
 41
0.8
 50
0
  1
30
  0
LINE
  8
_0-2_LAYER1
  6
CONTINUOUS
 62
    1
 10
13634.560777999999
 20
2888.1304700000001
 11
13634.560777999999
 21
2688.1304700000001
  0
LINE
  8
_0-2_LAYER1
  6
CONTINUOUS
 62
    1
 10
13134.560777999999
 20
2888.1304700000001
 11
13634.560777999999
 21
2888.1304700000001
  0
TEXT
  8
_0-2_LAYER1
 62
    7
 10
13332.060777999999
 20
2908.1304700000001
 40
140
 41
0.8
 50
0
  1
50
  0
LINE
  8
_0-2_LAYER1
  6
CONTINUOUS
 62
    1
 10
13934.560777999999
 20
2888.1304700000001
 11
13934.560777999999
 21
2688.1304700000001
  0
LINE
  8
_0-2_LAYER1
  6
CONTINUOUS
 62
    1
 10
13634.560777999999
 20
2888.1304700000001
 11
13934.560777999999
 21
2888.1304700000001
  0
TEXT
  8
_0-2_LAYER1
 62
    7
 10
13732.060777999999
 20
2908.1304700000001
 40
140
 41
0.8
 50
0
  1
30
  0
LINE
  8
_0-2_LAYER1
  6
CONTINUOUS
 62
    1
 10
14434.560777999999
 20
2888.1304700000001
 11
14434.560777999999
 21
2688.1304700000001
  0
LINE
  8
_0-2_LAYER1
  6
CONTINUOUS
 62
    1
 10
13934.560777999999
 20
2888.1304700000001
 11
14434.560777999999
 21
2888.1304700000001
  0
TEXT
  8
_0-2_LAYER1
 62
    7
 10
14132.060777999999
 20
2908.1304700000001
 40
140
 41
0.8
 50
0
  1
50
  0
LINE
  8
_0-2_LAYER1
  6
CONTINUOUS
 62
    1
 10
14434.560777999999
 20
2888.1304700000001
 11
14734.560777999999
 21
2888.1304700000001
  0
TEXT
  8
_0-2_LAYER1
 62
    7
 10
14532.060777999999
 20
2908.1304700000001
 40
140
 41
0.8
 50
0
  1
30
  0
LINE
  8
_0-2_LAYER1
  6
CONTINUOUS
 62
    1
 10
14734.560777999999
 20
2888.1304700000001
 11
14734.560777999999
 21
2688.1304700000001
  0
LINE
  8
_0-2_LAYER1
  6
CONTINUOUS
 62
    1
 10
15234.560777999999
 20
2888.1304700000001
 11
15234.560777999999
 21
2688.1304700000001
  0
LINE
  8
_0-2_LAYER1
  6
CONTINUOUS
 62
    1
 10
14734.560777999999
 20
2888.1304700000001
 11
15234.560777999999
 21
2888.1304700000001
  0
TEXT
  8
_0-2_LAYER1
 62
    7
 10
14932.060777999999
 20
2908.1304700000001
 40
140
 41
0.8
 50
0
  1
50
  0
LINE
  8
_0-2_LAYER1
  6
CONTINUOUS
 62
    1
 10
15484.560777999999
 20
2888.1304700000001
 11
15484.560777999999
 21
2688.1304700000001
  0
LINE
  8
_0-2_LAYER1
  6
CONTINUOUS
 62
    1
 10
15234.560777999999
 20
2888.1304700000001
 11
15484.560777999999
 21
2888.1304700000001
  0
TEXT
  8
_0-2_LAYER1
 62
    7
 10
15307.060777999999
 20
2908.1304700000001
 40
140
 41
0.8
 50
0
  1
25
  0
LINE
  8
_0-2_LAYER1
  6
CONTINUOUS
 62
    1
 10
15484.560777999999
 20
3088.1304700000001
 11
15484.560777999999
 21
2888.1304700000001
  0
LINE
  8
_0-2_LAYER1
  6
CONTINUOUS
 62
    1
 10
6484.560778
 20
3088.1304700000001
 11
6484.560778
 21
2888.1304700000001
  0
LINE
  8
_0-2_LAYER1
  6
CONTINUOUS
 62
    1
 10
15484.560777999999
 20
3088.1304700000001
 11
6484.560778
 21
3088.1304700000001
  0
TEXT
  8
_0-2_LAYER1
 62
    7
 10
10905.810777999999
 20
3108.1304700000001
 40
140
 41
0.8
 50
0
  1
900
  0
LINE
  8
_0-2_LAYER1
  6
CONTINUOUS
 62
    1
 10
400
 20
400
 11
400
 21
11480
  0
LINE
  8
_0-2_LAYER1
  6
CONTINUOUS
 62
    1
 10
400
 20
11480
 11
16400
 21
11480
  0
LINE
  8
_0-2_LAYER1
  6
CONTINUOUS
 62
    1
 10
16400
 20
11480
 11
16400
 21
400
  0
LINE
  8
_0-2_LAYER1
  6
CONTINUOUS
 62
    1
 10
16400
 20
400
 11
400
 21
400
  0
LINE
  8
_0-2_LAYER1
  6
CONTINUOUS
 62
    3
 10
3255.560778
 20
6733.1304700000001
 11
3581.1537680000001
 21
6896.7975339999994
  0
ARC
  8
_0-2_LAYER1
  6
CONTINUOUS
 62
    3
 10
3577.560778
 20
6903.945291
 40
8
 50
296.68747799999994
 51
359.99999999999994
  0
LINE
  8
_0-2_LAYER1
  6
CONTINUOUS
 62
    3
 10
3254.560778
 20
6736.1304700000001
 11
3579.3572729999996
 21
6899.3971570000012
  0
LINE
  8
_0-2_LAYER1
  6
CONTINUOUS
 62
    3
 10
3255.560778
 20
6733.1304700000001
 11
3701.8496319999995
 21
6956.2748970000011
  0
LINE
  8
_0-2_LAYER1
  6
CONTINUOUS
 62
    3
 10
3257.5607779999996
 20
6729.1304700000001
 11
3703.6263429999999
 21
6951.2181989999999
  0
LINE
  8
_0-2_LAYER1
  6
CONTINUOUS
 62
    3
 10
3257.5607779999996
 20
6729.1304700000001
 11
3254.560778
 21
6736.1304700000001
  0
LINE
  8
_0-2_LAYER1
  6
CONTINUOUS
 62
    3
 10
4375.560778
 20
6733.1304700000001
 11
4049.9677879999999
 21
6896.7975339999994
  0
LINE
  8
_0-2_LAYER1
  6
CONTINUOUS
 62
    3
 10
4376.560778
 20
6736.1304700000001
 11
4051.7642830000004
 21
6899.3971570000012
  0
ARC
  8
_0-2_LAYER1
  6
CONTINUOUS
 62
    3
 10
4053.560778
 20
6902.9710359999999
 40
4
 50
180
 51
243.31252199999997
  0
LINE
  8
_0-2_LAYER1
  6
CONTINUOUS
 62
    3
 10
4374.560778
 20
6732.1304700000001
 11
3929.2596709999998
 21
6956.6921869999996
  0
LINE
  8
_0-2_LAYER1
  6
CONTINUOUS
 62
    3
 10
4373.560778
 20
6729.1304700000001
 11
3927.4953690000002
 21
6951.2059529999997
  0
ARC
  8
_0-2_LAYER1
  6
CONTINUOUS
 62
    3
 10
3931.060778
 20
6958.3675070000008
 40
8
 50
180
 51
243.53339499999998
  0
LINE
  8
_0-2_LAYER1
  6
CONTINUOUS
 62
    3
 10
4373.560778
 20
6729.1304700000001
 11
4376.560778
 21
6736.1304700000001
  0
CIRCLE
  8
_0-2_LAYER1
  6
CONTINUOUS
 62
    1
 10
3815.560778
 20
7008.1304700000001
 40
10
  0
LINE
  8
_0-2_LAYER1
  6
DASHED
 62
    1
 10
3815.560778
 20
7008.1304700000001
 11
3615.560778
 21
6908.1304700000001
  0
LINE
  8
_0-2_LAYER1
  6
DASHED
 62
    1
 10
3815.560778
 20
7008.1304700000001
 11
4015.560778
 21
6908.1304700000001
  0
LINE
  8
_0-2_LAYER1
  6
DASHED
 62
    3
 10
3708.060778
 20
7809.1304700000001
 11
3708.060778
 21
7609.1304700000001
  0
LINE
  8
_0-2_LAYER1
  6
DASHED
 62
    3
 10
3704.060778
 20
7609.1304700000001
 11
3704.060778
 21
7809.1304700000001
  0
LINE
  8
_0-2_LAYER1
  6
CONTINUOUS
 62
    3
 10
3708.060778
 20
7609.1304700000001
 11
3708.060778
 21
7418.1304700000001
  0
LINE
  8
_0-2_LAYER1
  6
CONTINUOUS
 62
    3
 10
3708.060778
 20
7418.1304700000001
 11
3708.060778
 21
6958.3796750000001
  0
ARC
  8
_0-2_LAYER1
  6
CONTINUOUS
 62
    3
 10
3700.060778
 20
6958.3796750000001
 40
8
 50
296.46785699999998
 51
0
  0
LINE
  8
_0-2_LAYER1
  6
CONTINUOUS
 62
    3
 10
4041.560778
 20
8018.1304700000001
 11
4041.560778
 21
7825.1304700000001
  0
LINE
  8
_0-2_LAYER1
  6
CONTINUOUS
 62
    3
 10
3589.560778
 20
8018.1304700000001
 11
3589.560778
 21
7825.1304700000001
  0
LINE
  8
_0-2_LAYER1
  6
CONTINUOUS
 62
    3
 10
3585.560778
 20
8018.1304700000001
 11
3589.560778
 21
8018.1304700000001
  0
LINE
  8
_0-2_LAYER1
  6
CONTINUOUS
 62
    3
 10
4041.560778
 20
8018.1304700000001
 11
4045.560778
 21
8018.1304700000001
  0
LINE
  8
_0-2_LAYER1
  6
CONTINUOUS
 62
    3
 10
3581.560778
 20
8014.1304700000001
 11
3585.560778
 21
8014.1304700000001
  0
LINE
  8
_0-2_LAYER1
  6
CONTINUOUS
 62
    3
 10
4045.560778
 20
8014.1304700000001
 11
4049.560778
 21
8014.1304700000001
  0
LINE
  8
_0-2_LAYER1
  6
CONTINUOUS
 62
    3
 10
4037.560778
 20
7817.1304700000001
 11
3593.560778
 21
7817.1304700000001
  0
LINE
  8
_0-2_LAYER1
  6
CONTINUOUS
 62
    3
 10
4037.560778
 20
7821.1304700000001
 11
3593.560778
 21
7821.1304700000001
  0
LINE
  8
_0-2_LAYER1
  6
CONTINUOUS
 62
    3
 10
4045.560778
 20
8018.1304700000001
 11
4045.560778
 21
7825.1304700000001
  0
LINE
  8
_0-2_LAYER1
  6
CONTINUOUS
 62
    3
 10
3585.560778
 20
8018.1304700000001
 11
3585.560778
 21
7825.1304700000001
  0
LINE
  8
_0-2_LAYER1
  6
CONTINUOUS
 62
    3
 10
4049.560778
 20
8014.1304700000001
 11
4049.560778
 21
7825.1304700000001
  0
LINE
  8
_0-2_LAYER1
  6
CONTINUOUS
 62
    3
 10
3581.560778
 20
8014.1304700000001
 11
3581.560778
 21
7825.1304700000001
  0
ARC
  8
_0-2_LAYER1
  6
CONTINUOUS
 62
    3
 10
3593.560778
 20
7825.1304700000001
 40
12
 50
180
 51
270
  0
LINE
  8
_0-2_LAYER1
  6
CONTINUOUS
 62
    3
 10
3923.060778
 20
7609.1304700000001
 11
3923.060778
 21
7418.1304700000001
  0
LINE
  8
_0-2_LAYER1
  6
CONTINUOUS
 62
    3
 10
3923.060778
 20
7418.1304700000001
 11
3923.060778
 21
6958.3675070000008
  0
LINE
  8
_0-2_LAYER1
  6
CONTINUOUS
 62
    3
 10
3927.060778
 20
7218.1304700000001
 11
3927.060778
 21
6960.2637430000004
  0
ARC
  8
_0-2_LAYER1
  6
CONTINUOUS
 62
    3
 10
3931.060778
 20
6960.2637430000004
 40
4
 50
180
 51
243.23856299999997
  0
LINE
  8
_0-2_LAYER1
  6
CONTINUOUS
 62
    3
 10
3927.060778
 20
7218.1304700000001
 11
3927.060778
 21
7609.1304700000001
  0
LINE
  8
_0-2_LAYER1
  6
CONTINUOUS
 62
    3
 10
3704.060778
 20
7609.1304700000001
 11
3704.060778
 21
7218.1304700000001
  0
LINE
  8
_0-2_LAYER1
  6
CONTINUOUS
 62
    3
 10
3704.060778
 20
7218.1304700000001
 11
3704.060778
 21
6959.8526060000004
  0
ARC
  8
_0-2_LAYER1
  6
CONTINUOUS
 62
    3
 10
3700.060778
 20
6959.8526060000004
 40
4
 50
296.56505099999998
 51
0
  0
LINE
  8
_0-2_LAYER1
  6
CONTINUOUS
 62
    3
 10
3585.560778
 20
7742.279399
 11
3585.560778
 21
7418.1304700000001
  0
LINE
  8
_0-2_LAYER1
  6
CONTINUOUS
 62
    3
 10
3585.560778
 20
7218.1304700000001
 11
3585.560778
 21
6903.945291
  0
ARC
  8
_0-2_LAYER1
  6
CONTINUOUS
 62
    3
 10
3589.560778
 20
7742.279399
 40
4
 50
132.997467
 51
180
  0
LINE
  8
_0-2_LAYER1
  6
CONTINUOUS
 62
    3
 10
4049.560778
 20
6902.9710359999999
 11
4049.560778
 21
7218.1304700000001
  0
LINE
  8
_0-2_LAYER1
  6
CONTINUOUS
 62
    3
 10
4049.560778
 20
7418.1304700000001
 11
4049.560778
 21
7742.2745409999989
  0
LINE
  8
_0-2_LAYER1
  6
CONTINUOUS
 62
    3
 10
3581.560778
 20
7742.279399
 11
3581.560778
 21
7418.1304700000001
  0
LINE
  8
_0-2_LAYER1
  6
CONTINUOUS
 62
    3
 10
3581.560778
 20
7218.1304700000001
 11
3581.560778
 21
6902.9710359999999
  0
ARC
  8
_0-2_LAYER1
  6
CONTINUOUS
 62
    3
 10
3577.560778
 20
6902.9710359999999
 40
4
 50
296.68747799999994
 51
359.99999999999994
  0
ARC
  8
_0-2_LAYER1
  6
CONTINUOUS
 62
    3
 10
3589.560778
 20
7742.279399
 40
8
 50
132.997467
 51
180
  0
LINE
  8
_0-2_LAYER1
  6
CONTINUOUS
 62
    3
 10
3919.060778
 20
7813.1304700000001
 11
3712.060778
 21
7813.1304700000001
  0
ARC
  8
_0-2_LAYER1
  6
CONTINUOUS
 62
    3
 10
4037.560778
 20
7825.1304700000001
 40
4
 50
270
 51
0
  0
ARC
  8
_0-2_LAYER1
  6
CONTINUOUS
 62
    3
 10
4037.560778
 20
7825.1304700000001
 40
8
 50
270
 51
0
  0
LINE
  8
_0-2_LAYER1
  6
CONTINUOUS
 62
    3
 10
4025.560778
 20
7817.1304700000001
 11
4009.560778
 21
7817.1304700000001
  0
ARC
  8
_0-2_LAYER1
  6
CONTINUOUS
 62
    3
 10
3919.060778
 20
7809.1304700000001
 40
4
 50
0
 51
90
  0
ARC
  8
_0-2_LAYER1
  6
CONTINUOUS
 62
    3
 10
3712.060778
 20
7809.1304700000001
 40
4
 50
90
 51
180
  0
LINE
  8
_0-2_LAYER1
  6
CONTINUOUS
 62
    3
 10
3919.060778
 20
7817.1304700000001
 11
3712.060778
 21
7817.1304700000001
  0
ARC
  8
_0-2_LAYER1
  6
CONTINUOUS
 62
    3
 10
3919.060778
 20
7809.1304700000001
 40
8
 50
0
 51
90
  0
ARC
  8
_0-2_LAYER1
  6
CONTINUOUS
 62
    3
 10
3712.060778
 20
7809.1304700000001
 40
8
 50
90
 51
180
  0
ARC
  8
_0-2_LAYER1
  6
CONTINUOUS
 62
    3
 10
3593.560778
 20
7825.1304700000001
 40
8
 50
180
 51
270
  0
ARC
  8
_0-2_LAYER1
  6
CONTINUOUS
 62
    3
 10
3593.560778
 20
7825.1304700000001
 40
4
 50
180
 51
270
  0
LINE
  8
_0-2_LAYER1
  6
CONTINUOUS
 62
    3
 10
3611.560778
 20
7817.1304700000001
 11
3641.1156730000002
 21
7817.1304700000001
  0
LINE
  8
_0-2_LAYER1
  6
CONTINUOUS
 62
    3
 10
4045.560778
 20
7742.2769700000008
 11
4045.560778
 21
7418.1304700000001
  0
LINE
  8
_0-2_LAYER1
  6
CONTINUOUS
 62
    3
 10
4045.560778
 20
7218.1304700000001
 11
4045.560778
 21
6903.945291
  0
ARC
  8
_0-2_LAYER1
  6
CONTINUOUS
 62
    3
 10
4053.560778
 20
6903.945291
 40
8
 50
180
 51
243.31252199999997
  0
LINE
  8
_0-2_LAYER1
  6
CONTINUOUS
 62
    3
 10
3647.560778
 20
7813.1304700000001
 11
3593.560778
 21
7813.1304700000001
  0
LINE
  8
_0-2_LAYER1
  6
CONTINUOUS
 62
    3
 10
3650.2886419999995
 20
7806.2049349999998
 11
3584.1050500000001
 21
7748.1304700000001
  0
ARC
  8
_0-2_LAYER1
  6
CONTINUOUS
 62
    3
 10
3647.560778
 20
7809.1304700000001
 40
4
 50
312.99746699999997
 51
89.999999999999972
  0
LINE
  8
_0-2_LAYER1
  6
CONTINUOUS
 62
    3
 10
3653.0165059999999
 20
7803.2793990000009
 11
3586.8329140000005
 21
7745.2049349999998
  0
ARC
  8
_0-2_LAYER1
  6
CONTINUOUS
 62
    3
 10
3647.560778
 20
7809.1304700000001
 40
8
 50
312.99746699999997
 51
89.999999999999972
  0
LINE
  8
_0-2_LAYER1
  6
CONTINUOUS
 62
    3
 10
3641.1156730000002
 20
7817.1304700000001
 11
3593.560778
 21
7817.1304700000001
  0
LINE
  8
_0-2_LAYER1
  6
CONTINUOUS
 62
    3
 10
3978.1050500000001
 20
7803.2793990000009
 11
4044.1990089999999
 21
7745.2835859999996
  0
ARC
  8
_0-2_LAYER1
  6
CONTINUOUS
 62
    3
 10
4041.560778
 20
7742.2769700000008
 40
4
 50
0
 51
48.733848999999999
  0
ARC
  8
_0-2_LAYER1
  6
CONTINUOUS
 62
    3
 10
3983.560778
 20
7809.1304700000001
 40
8
 50
90
 51
227.002533
  0
LINE
  8
_0-2_LAYER1
  6
CONTINUOUS
 62
    3
 10
3980.8329140000005
 20
7806.2049349999998
 11
4046.8372399999998
 21
7748.2877719999997
  0
ARC
  8
_0-2_LAYER1
  6
CONTINUOUS
 62
    3
 10
4041.560778
 20
7742.2745409999989
 40
8
 50
0
 51
48.733848999999999
  0
ARC
  8
_0-2_LAYER1
  6
CONTINUOUS
 62
    3
 10
3983.560778
 20
7809.1304700000001
 40
4
 50
90
 51
227.002533
  0
ARC
  8
_0-2_LAYER1
  6
CONTINUOUS
 62
    3
 10
4041.560778
 20
7742.279399
 40
4
 50
0
 51
47.002533
  0
ARC
  8
_0-2_LAYER1
  6
CONTINUOUS
 62
    3
 10
4041.560778
 20
7742.279399
 40
8
 50
0
 51
47.002533
  0
LINE
  8
_0-2_LAYER1
  6
CONTINUOUS
 62
    3
 10
3983.560778
 20
7813.1304700000001
 11
4037.560778
 21
7813.1304700000001
  0
ARC
  8
_0-2_LAYER1
  6
CONTINUOUS
 62
    3
 10
4037.560778
 20
7825.1304700000001
 40
12
 50
270
 51
0
  0
LINE
  8
_0-2_LAYER1
  6
DASHED
 62
    3
 10
3927.060778
 20
7809.1304700000001
 11
3927.060778
 21
7609.1304700000001
  0
LINE
  8
_0-2_LAYER1
  6
DASHED
 62
    3
 10
3923.060778
 20
7609.1304700000001
 11
3923.060778
 21
7809.1304700000001
  0
LINE
  8
_0-2_LAYER1
  6
DASHED
 62
    3
 10
4049.560778
 20
7418.1304700000001
 11
4049.560778
 21
7218.1304700000001
  0
LINE
  8
_0-2_LAYER1
  6
DASHED
 62
    3
 10
4045.560778
 20
7218.1304700000001
 11
4045.560778
 21
7418.1304700000001
  0
LINE
  8
_0-2_LAYER1
  6
DASHED
 62
    3
 10
3585.560778
 20
7418.1304700000001
 11
3585.560778
 21
7218.1304700000001
  0
LINE
  8
_0-2_LAYER1
  6
DASHED
 62
    3
 10
3581.560778
 20
7218.1304700000001
 11
3581.560778
 21
7418.1304700000001
  0
LINE
  8
_0-2_LAYER1
  6
CONTINUOUS
 62
    1
 10
3704.060778
 20
6460.6457620000001
 11
3704.060778
 21
6660.6457620000001
  0
LINE
  8
_0-2_LAYER1
  6
CONTINUOUS
 62
    1
 10
3927.060778
 20
6460.6457620000001
 11
3927.060778
 21
6660.6457620000001
  0
LINE
  8
_0-2_LAYER1
  6
CONTINUOUS
 62
    1
 10
3704.060778
 20
6460.6457620000001
 11
3927.060778
 21
6460.6457620000001
  0
TEXT
  8
_0-2_LAYER1
 62
    7
 10
3710.560778
 20
6480.6457620000001
 40
140
 41
0.8
 50
0
  1
22.3
  0
LINE
  8
_0-2_LAYER1
  6
CONTINUOUS
 62
    1
 10
3581.560778
 20
6260.6457620000001
 11
3581.560778
 21
6660.6457620000001
  0
LINE
  8
_0-2_LAYER1
  6
CONTINUOUS
 62
    1
 10
4049.560778
 20
6260.6457620000001
 11
4049.560778
 21
6660.6457620000001
  0
LINE
  8
_0-2_LAYER1
  6
CONTINUOUS
 62
    1
 10
3581.560778
 20
6260.6457620000001
 11
4049.560778
 21
6260.6457620000001
  0
TEXT
  8
_0-2_LAYER1
 62
    7
 10
3763.060778
 20
6280.6457620000001
 40
140
 41
0.8
 50
0
  1
46
  0
LINE
  8
_0-2_LAYER1
  6
CONTINUOUS
 62
    1
 10
3250.9131860000002
 20
6060.6457620000001
 11
3250.9131860000002
 21
6660.6457620000001
  0
LINE
  8
_0-2_LAYER1
  6
CONTINUOUS
 62
    1
 10
4380.2083700000003
 20
6060.6457620000001
 11
4380.2083700000003
 21
6660.6457620000001
  0
LINE
  8
_0-2_LAYER1
  6
CONTINUOUS
 62
    1
 10
3250.9131860000002
 20
6060.6457620000001
 11
4380.2083700000003
 21
6060.6457620000001
  0
TEXT
  8
_0-2_LAYER1
 62
    7
 10
3684.310778
 20
6080.6457620000001
 40
140
 41
0.8
 50
0
  1
117.4
  0
LINE
  8
_0-2_LAYER1
  6
CONTINUOUS
 62
    1
 10
4163.3617409999997
 20
7129.3623129999996
 11
4073.5369929999997
 21
6950.6683999999996
  0
LINE
  8
_0-2_LAYER1
  6
CONTINUOUS
 62
    1
 10
4491.3513869999997
 20
6964.4905120000003
 11
4401.5266389999997
 21
6785.7965990000002
  0
LINE
  8
_0-2_LAYER1
  6
CONTINUOUS
 62
    1
 10
4163.3617409999997
 20
7129.3623129999996
 11
4491.3513869999997
 21
6964.4905120000003
  0
TEXT
  8
_0-2_LAYER1
 62
    7
 10
4289.4318960000001
 20
7088.3748180000002
 40
140
 41
0.8
 50
-26.687500000000064
  1
40
  0
LINE
  8
_0-2_LAYER1
  6
CONTINUOUS
 62
    1
 10
4965.560778
 20
8014.1304700000001
 11
4202.3945350000004
 21
8014.1304700000001
  0
LINE
  8
_0-2_LAYER1
  6
CONTINUOUS
 62
    1
 10
4965.560778
 20
7809.1304700000001
 11
4965.560778
 21
8014.1304700000001
  0
TEXT
  8
_0-2_LAYER1
 62
    7
 10
4945.560778
 20
7806.6304700000001
 40
140
 41
0.8
 50
90
  1
22.5
  0
LINE
  8
_0-2_LAYER1
  6
CONTINUOUS
 62
    1
 10
3591.560778
 20
8273.9570029999995
 11
3591.560778
 21
8113.4634800000003
  0
LINE
  8
_0-2_LAYER1
  6
CONTINUOUS
 62
    1
 10
4039.560778
 20
8273.9570029999995
 11
4039.560778
 21
8113.4634800000003
  0
LINE
  8
_0-2_LAYER1
  6
CONTINUOUS
 62
    1
 10
3591.560778
 20
8273.9570029999995
 11
4039.560778
 21
8273.9570029999995
  0
TEXT
  8
_0-2_LAYER1
 62
    7
 10
3763.060778
 20
8293.9570029999995
 40
140
 41
0.8
 50
0
  1
44
  0
LINE
  8
_0-2_LAYER1
  6
CONTINUOUS
 62
    1
 10
6545.560778
 20
7748.1304700000001
 11
15345.560777999999
 21
7748.1304700000001
  0
LINE
  8
_0-2_LAYER1
  6
CONTINUOUS
 62
    1
 10
4965.560778
 20
7008.1304700000001
 11
3870.0754070000003
 21
7008.1304700000001
  0
LINE
  8
_0-2_LAYER1
  6
CONTINUOUS
 62
    1
 10
4965.560778
 20
7809.1304700000001
 11
4202.3945350000004
 21
7809.1304700000001
  0
LINE
  8
_0-2_LAYER1
  6
CONTINUOUS
 62
    1
 10
4965.560778
 20
7008.1304700000001
 11
4965.560778
 21
7809.1304700000001
  0
TEXT
  8
_0-2_LAYER1
 62
    7
 10
4945.560778
 20
7356.1304700000001
 40
140
 41
0.8
 50
90
  1
80
  0
LINE
  8
_0-2_LAYER1
  6
CONTINUOUS
 62
    1
 10
15484.560777999999
 20
1879.1304700000001
 11
6484.560778
 21
1879.1304700000001
  0
TEXT
  8
_0-2_LAYER1
 62
    7
 10
4375.7809770000003
 20
4479.5363079999997
 40
140
 41
0.8
 50
-54.177601000000102
  1
10
  0
LINE
  8
_0-2_LAYER1
  6
CONTINUOUS
 62
    1
 10
6484.560778
 20
5211.3475280000002
 11
15484.560777999999
 21
5211.3475280000002
  0
LINE
  8
_0-2_LAYER1
  6
CONTINUOUS
 62
    1
 10
15484.560777999999
 20
5211.3475280000002
 11
15484.560777999999
 21
4329.7317380000004
  0
LINE
  8
_0-2_LAYER1
  6
CONTINUOUS
 62
    1
 10
6484.560778
 20
5211.3475280000002
 11
6484.560778
 21
4329.7317380000004
  0
LINE
  8
_0-2_LAYER1
  6
CONTINUOUS
 62
    1
 10
6484.560778
 20
5104.7039279999999
 11
15484.560777999999
 21
5104.7039279999999
  0
LINE
  8
_0-2_LAYER1
  6
CONTINUOUS
 62
    1
 10
6484.560778
 20
4804.7039279999999
 11
15484.560777999999
 21
4804.7039279999999
  0
LINE
  8
_0-2_LAYER1
  6
CONTINUOUS
 62
    1
 10
6484.560778
 20
4731.7909170000003
 11
15484.560777999999
 21
4731.7909170000003
  0
LINE
  8
_0-2_LAYER1
  6
CONTINUOUS
 62
    1
 10
6484.560778
 20
4650.7074089999996
 11
15484.560777999999
 21
4650.7074089999996
  0
LINE
  8
_0-2_LAYER1
  6
CONTINUOUS
 62
    1
 10
6484.560778
 20
4426.2277180000001
 11
15484.560777999999
 21
4426.2277180000001
  0
LINE
  8
_0-2_LAYER1
  6
CONTINUOUS
 62
    1
 10
6484.560778
 20
4329.7317380000004
 11
15484.560777999999
 21
4329.7317380000004
  0
LINE
  8
_0-2_LAYER1
  6
CONTINUOUS
 62
    1
 10
6734.560778
 20
5104.7039279999999
 11
6734.560778
 21
4904.7039279999999
  0
LINE
  8
_0-2_LAYER1
  6
CONTINUOUS
 62
    1
 10
7234.560778
 20
5104.7039279999999
 11
7234.560778
 21
4904.7039279999999
  0
LINE
  8
_0-2_LAYER1
  6
CONTINUOUS
 62
    1
 10
7234.560778
 20
4904.7039279999999
 11
6734.560778
 21
4904.7039279999999
  0
LINE
  8
_0-2_LAYER1
  6
CONTINUOUS
 62
    1
 10
7534.560778
 20
5104.7039279999999
 11
7534.560778
 21
4904.7039279999999
  0
LINE
  8
_0-2_LAYER1
  6
CONTINUOUS
 62
    1
 10
8034.560778
 20
5104.7039279999999
 11
8034.560778
 21
4904.7039279999999
  0
LINE
  8
_0-2_LAYER1
  6
CONTINUOUS
 62
    1
 10
8034.560778
 20
4904.7039279999999
 11
7534.560778
 21
4904.7039279999999
  0
LINE
  8
_0-2_LAYER1
  6
CONTINUOUS
 62
    1
 10
8334.5607779999991
 20
5104.7039279999999
 11
8334.5607779999991
 21
4904.7039279999999
  0
LINE
  8
_0-2_LAYER1
  6
CONTINUOUS
 62
    1
 10
8834.5607779999991
 20
5104.7039279999999
 11
8834.5607779999991
 21
4904.7039279999999
  0
LINE
  8
_0-2_LAYER1
  6
CONTINUOUS
 62
    1
 10
8834.5607779999991
 20
4904.7039279999999
 11
8334.5607779999991
 21
4904.7039279999999
  0
LINE
  8
_0-2_LAYER1
  6
CONTINUOUS
 62
    1
 10
9134.5607779999991
 20
5104.7039279999999
 11
9134.5607779999991
 21
4904.7039279999999
  0
LINE
  8
_0-2_LAYER1
  6
CONTINUOUS
 62
    1
 10
9634.5607779999991
 20
5104.7039279999999
 11
9634.5607779999991
 21
4904.7039279999999
  0
LINE
  8
_0-2_LAYER1
  6
CONTINUOUS
 62
    1
 10
9634.5607779999991
 20
4904.7039279999999
 11
9134.5607779999991
 21
4904.7039279999999
  0
LINE
  8
_0-2_LAYER1
  6
CONTINUOUS
 62
    1
 10
9934.5607779999991
 20
5104.7039279999999
 11
9934.5607779999991
 21
4904.7039279999999
  0
LINE
  8
_0-2_LAYER1
  6
CONTINUOUS
 62
    1
 10
10434.560777999999
 20
5104.7039279999999
 11
10434.560777999999
 21
4904.7039279999999
  0
LINE
  8
_0-2_LAYER1
  6
CONTINUOUS
 62
    1
 10
10434.560777999999
 20
4904.7039279999999
 11
9934.5607779999991
 21
4904.7039279999999
  0
LINE
  8
_0-2_LAYER1
  6
CONTINUOUS
 62
    1
 10
10734.560777999999
 20
5104.7039279999999
 11
10734.560777999999
 21
4904.7039279999999
  0
LINE
  8
_0-2_LAYER1
  6
CONTINUOUS
 62
    1
 10
11234.560777999999
 20
5104.7039279999999
 11
11234.560777999999
 21
4904.7039279999999
  0
LINE
  8
_0-2_LAYER1
  6
CONTINUOUS
 62
    1
 10
11234.560777999999
 20
4904.7039279999999
 11
10734.560777999999
 21
4904.7039279999999
  0
LINE
  8
_0-2_LAYER1
  6
CONTINUOUS
 62
    1
 10
11534.560777999999
 20
5104.7039279999999
 11
11534.560777999999
 21
4904.7039279999999
  0
LINE
  8
_0-2_LAYER1
  6
CONTINUOUS
 62
    1
 10
12034.560777999999
 20
5104.7039279999999
 11
12034.560777999999
 21
4904.7039279999999
  0
LINE
  8
_0-2_LAYER1
  6
CONTINUOUS
 62
    1
 10
12034.560777999999
 20
4904.7039279999999
 11
11534.560777999999
 21
4904.7039279999999
  0
LINE
  8
_0-2_LAYER1
  6
CONTINUOUS
 62
    1
 10
12334.560777999999
 20
5104.7039279999999
 11
12334.560777999999
 21
4904.7039279999999
  0
LINE
  8
_0-2_LAYER1
  6
CONTINUOUS
 62
    1
 10
12834.560777999999
 20
5104.7039279999999
 11
12834.560777999999
 21
4904.7039279999999
  0
LINE
  8
_0-2_LAYER1
  6
CONTINUOUS
 62
    1
 10
12834.560777999999
 20
4904.7039279999999
 11
12334.560777999999
 21
4904.7039279999999
  0
LINE
  8
_0-2_LAYER1
  6
CONTINUOUS
 62
    1
 10
13134.560777999999
 20
5104.7039279999999
 11
13134.560777999999
 21
4904.7039279999999
  0
LINE
  8
_0-2_LAYER1
  6
CONTINUOUS
 62
    1
 10
13634.560777999999
 20
5104.7039279999999
 11
13634.560777999999
 21
4904.7039279999999
  0
LINE
  8
_0-2_LAYER1
  6
CONTINUOUS
 62
    1
 10
13634.560777999999
 20
4904.7039279999999
 11
13134.560777999999
 21
4904.7039279999999
  0
LINE
  8
_0-2_LAYER1
  6
CONTINUOUS
 62
    1
 10
13934.560777999999
 20
5104.7039279999999
 11
13934.560777999999
 21
4904.7039279999999
  0
LINE
  8
_0-2_LAYER1
  6
CONTINUOUS
 62
    1
 10
14434.560777999999
 20
5104.7039279999999
 11
14434.560777999999
 21
4904.7039279999999
  0
LINE
  8
_0-2_LAYER1
  6
CONTINUOUS
 62
    1
 10
14434.560777999999
 20
4904.7039279999999
 11
13934.560777999999
 21
4904.7039279999999
  0
LINE
  8
_0-2_LAYER1
  6
CONTINUOUS
 62
    1
 10
14734.560777999999
 20
5104.7039279999999
 11
14734.560777999999
 21
4904.7039279999999
  0
LINE
  8
_0-2_LAYER1
  6
CONTINUOUS
 62
    1
 10
15234.560777999999
 20
5104.7039279999999
 11
15234.560777999999
 21
4904.7039279999999
  0
LINE
  8
_0-2_LAYER1
  6
CONTINUOUS
 62
    1
 10
15234.560777999999
 20
4904.7039279999999
 11
14734.560777999999
 21
4904.7039279999999
  0
LINE
  8
_0-2_LAYER1
  6
CONTINUOUS
 62
    1
 10
6484.560778
 20
5575.2013790000001
 11
6484.560778
 21
5375.2013790000001
  0
LINE
  8
_0-2_LAYER1
  6
CONTINUOUS
 62
    1
 10
6484.560778
 20
5575.2013790000001
 11
6734.560778
 21
5575.2013790000001
  0
TEXT
  8
_0-2_LAYER1
 62
    7
 10
6557.060778
 20
5595.2013790000001
 40
140
 41
0.8
 50
0
  1
25
  0
LINE
  8
_0-2_LAYER1
  6
CONTINUOUS
 62
    1
 10
6734.560778
 20
5575.2013790000001
 11
6734.560778
 21
5375.2013790000001
  0
LINE
  8
_0-2_LAYER1
  6
CONTINUOUS
 62
    1
 10
6734.560778
 20
5575.2013790000001
 11
7234.560778
 21
5575.2013790000001
  0
TEXT
  8
_0-2_LAYER1
 62
    7
 10
6932.060778
 20
5595.2013790000001
 40
140
 41
0.8
 50
0
  1
50
  0
LINE
  8
_0-2_LAYER1
  6
CONTINUOUS
 62
    1
 10
7234.560778
 20
5575.2013790000001
 11
7234.560778
 21
5375.2013790000001
  0
LINE
  8
_0-2_LAYER1
  6
CONTINUOUS
 62
    1
 10
7534.560778
 20
5575.2013790000001
 11
7534.560778
 21
5375.2013790000001
  0
LINE
  8
_0-2_LAYER1
  6
CONTINUOUS
 62
    1
 10
7234.560778
 20
5575.2013790000001
 11
7534.560778
 21
5575.2013790000001
  0
TEXT
  8
_0-2_LAYER1
 62
    7
 10
7332.060778
 20
5595.2013790000001
 40
140
 41
0.8
 50
0
  1
30
  0
LINE
  8
_0-2_LAYER1
  6
CONTINUOUS
 62
    1
 10
8034.560778
 20
5575.2013790000001
 11
8034.560778
 21
5375.2013790000001
  0
LINE
  8
_0-2_LAYER1
  6
CONTINUOUS
 62
    1
 10
7534.560778
 20
5575.2013790000001
 11
8034.560778
 21
5575.2013790000001
  0
TEXT
  8
_0-2_LAYER1
 62
    7
 10
7732.060778
 20
5595.2013790000001
 40
140
 41
0.8
 50
0
  1
50
  0
LINE
  8
_0-2_LAYER1
  6
CONTINUOUS
 62
    1
 10
8034.560778
 20
5575.2013790000001
 11
8334.5607779999991
 21
5575.2013790000001
  0
TEXT
  8
_0-2_LAYER1
 62
    7
 10
8132.060778
 20
5595.2013790000001
 40
140
 41
0.8
 50
0
  1
30
  0
LINE
  8
_0-2_LAYER1
  6
CONTINUOUS
 62
    1
 10
8334.5607779999991
 20
5575.2013790000001
 11
8334.5607779999991
 21
5375.2013790000001
  0
LINE
  8
_0-2_LAYER1
  6
CONTINUOUS
 62
    1
 10
8834.5607779999991
 20
5575.2013790000001
 11
8834.5607779999991
 21
5375.2013790000001
  0
LINE
  8
_0-2_LAYER1
  6
CONTINUOUS
 62
    1
 10
8334.5607779999991
 20
5575.2013790000001
 11
8834.5607779999991
 21
5575.2013790000001
  0
TEXT
  8
_0-2_LAYER1
 62
    7
 10
8532.0607779999991
 20
5595.2013790000001
 40
140
 41
0.8
 50
0
  1
50
  0
LINE
  8
_0-2_LAYER1
  6
CONTINUOUS
 62
    1
 10
8834.5607779999991
 20
5575.2013790000001
 11
9134.5607779999991
 21
5575.2013790000001
  0
TEXT
  8
_0-2_LAYER1
 62
    7
 10
8932.0607779999991
 20
5595.2013790000001
 40
140
 41
0.8
 50
0
  1
30
  0
LINE
  8
_0-2_LAYER1
  6
CONTINUOUS
 62
    1
 10
9134.5607779999991
 20
5575.2013790000001
 11
9134.5607779999991
 21
5375.2013790000001
  0
LINE
  8
_0-2_LAYER1
  6
CONTINUOUS
 62
    1
 10
9134.5607779999991
 20
5575.2013790000001
 11
9634.5607779999991
 21
5575.2013790000001
  0
TEXT
  8
_0-2_LAYER1
 62
    7
 10
9332.0607779999991
 20
5595.2013790000001
 40
140
 41
0.8
 50
0
  1
50
  0
LINE
  8
_0-2_LAYER1
  6
CONTINUOUS
 62
    1
 10
9634.5607779999991
 20
5575.2013790000001
 11
9634.5607779999991
 21
5375.2013790000001
  0
LINE
  8
_0-2_LAYER1
  6
CONTINUOUS
 62
    1
 10
9634.5607779999991
 20
5575.2013790000001
 11
9934.5607779999991
 21
5575.2013790000001
  0
TEXT
  8
_0-2_LAYER1
 62
    7
 10
9732.0607779999991
 20
5595.2013790000001
 40
140
 41
0.8
 50
0
  1
30
  0
LINE
  8
_0-2_LAYER1
  6
CONTINUOUS
 62
    1
 10
9934.5607779999991
 20
5575.2013790000001
 11
9934.5607779999991
 21
5375.2013790000001
  0
LINE
  8
_0-2_LAYER1
  6
CONTINUOUS
 62
    1
 10
10434.560777999999
 20
5575.2013790000001
 11
10434.560777999999
 21
5375.2013790000001
  0
LINE
  8
_0-2_LAYER1
  6
CONTINUOUS
 62
    1
 10
9934.5607779999991
 20
5575.2013790000001
 11
10434.560777999999
 21
5575.2013790000001
  0
TEXT
  8
_0-2_LAYER1
 62
    7
 10
10132.060777999999
 20
5595.2013790000001
 40
140
 41
0.8
 50
0
  1
50
  0
LINE
  8
_0-2_LAYER1
  6
CONTINUOUS
 62
    1
 10
10434.560777999999
 20
5575.2013790000001
 11
10734.560777999999
 21
5575.2013790000001
  0
TEXT
  8
_0-2_LAYER1
 62
    7
 10
10532.060777999999
 20
5595.2013790000001
 40
140
 41
0.8
 50
0
  1
30
  0
LINE
  8
_0-2_LAYER1
  6
CONTINUOUS
 62
    1
 10
10734.560777999999
 20
5575.2013790000001
 11
10734.560777999999
 21
5375.2013790000001
  0
LINE
  8
_0-2_LAYER1
  6
CONTINUOUS
 62
    1
 10
11234.560777999999
 20
5575.2013790000001
 11
11234.560777999999
 21
5375.2013790000001
  0
LINE
  8
_0-2_LAYER1
  6
CONTINUOUS
 62
    1
 10
10734.560777999999
 20
5575.2013790000001
 11
11234.560777999999
 21
5575.2013790000001
  0
TEXT
  8
_0-2_LAYER1
 62
    7
 10
10932.060777999999
 20
5595.2013790000001
 40
140
 41
0.8
 50
0
  1
50
  0
LINE
  8
_0-2_LAYER1
  6
CONTINUOUS
 62
    1
 10
11234.560777999999
 20
5575.2013790000001
 11
11534.560777999999
 21
5575.2013790000001
  0
TEXT
  8
_0-2_LAYER1
 62
    7
 10
11332.060777999999
 20
5595.2013790000001
 40
140
 41
0.8
 50
0
  1
30
  0
LINE
  8
_0-2_LAYER1
  6
CONTINUOUS
 62
    1
 10
11534.560777999999
 20
5575.2013790000001
 11
11534.560777999999
 21
5375.2013790000001
  0
LINE
  8
_0-2_LAYER1
  6
CONTINUOUS
 62
    1
 10
12034.560777999999
 20
5575.2013790000001
 11
12034.560777999999
 21
5375.2013790000001
  0
LINE
  8
_0-2_LAYER1
  6
CONTINUOUS
 62
    1
 10
11534.560777999999
 20
5575.2013790000001
 11
12034.560777999999
 21
5575.2013790000001
  0
TEXT
  8
_0-2_LAYER1
 62
    7
 10
11732.060777999999
 20
5595.2013790000001
 40
140
 41
0.8
 50
0
  1
50
  0
LINE
  8
_0-2_LAYER1
  6
CONTINUOUS
 62
    1
 10
12034.560777999999
 20
5575.2013790000001
 11
12334.560777999999
 21
5575.2013790000001
  0
TEXT
  8
_0-2_LAYER1
 62
    7
 10
12132.060777999999
 20
5595.2013790000001
 40
140
 41
0.8
 50
0
  1
30
  0
LINE
  8
_0-2_LAYER1
  6
CONTINUOUS
 62
    1
 10
12334.560777999999
 20
5575.2013790000001
 11
12334.560777999999
 21
5375.2013790000001
  0
LINE
  8
_0-2_LAYER1
  6
CONTINUOUS
 62
    1
 10
12834.560777999999
 20
5575.2013790000001
 11
12834.560777999999
 21
5375.2013790000001
  0
LINE
  8
_0-2_LAYER1
  6
CONTINUOUS
 62
    1
 10
12334.560777999999
 20
5575.2013790000001
 11
12834.560777999999
 21
5575.2013790000001
  0
TEXT
  8
_0-2_LAYER1
 62
    7
 10
12532.060777999999
 20
5595.2013790000001
 40
140
 41
0.8
 50
0
  1
50
  0
LINE
  8
_0-2_LAYER1
  6
CONTINUOUS
 62
    1
 10
13134.560777999999
 20
5575.2013790000001
 11
13134.560777999999
 21
5375.2013790000001
  0
LINE
  8
_0-2_LAYER1
  6
CONTINUOUS
 62
    1
 10
12834.560777999999
 20
5575.2013790000001
 11
13134.560777999999
 21
5575.2013790000001
  0
TEXT
  8
_0-2_LAYER1
 62
    7
 10
12932.060777999999
 20
5595.2013790000001
 40
140
 41
0.8
 50
0
  1
30
  0
LINE
  8
_0-2_LAYER1
  6
CONTINUOUS
 62
    1
 10
13634.560777999999
 20
5575.2013790000001
 11
13634.560777999999
 21
5375.2013790000001
  0
LINE
  8
_0-2_LAYER1
  6
CONTINUOUS
 62
    1
 10
13134.560777999999
 20
5575.2013790000001
 11
13634.560777999999
 21
5575.2013790000001
  0
TEXT
  8
_0-2_LAYER1
 62
    7
 10
13332.060777999999
 20
5595.2013790000001
 40
140
 41
0.8
 50
0
  1
50
  0
LINE
  8
_0-2_LAYER1
  6
CONTINUOUS
 62
    1
 10
13634.560777999999
 20
5575.2013790000001
 11
13934.560777999999
 21
5575.2013790000001
  0
TEXT
  8
_0-2_LAYER1
 62
    7
 10
13732.060777999999
 20
5595.2013790000001
 40
140
 41
0.8
 50
0
  1
30
  0
LINE
  8
_0-2_LAYER1
  6
CONTINUOUS
 62
    1
 10
13934.560777999999
 20
5575.2013790000001
 11
13934.560777999999
 21
5375.2013790000001
  0
LINE
  8
_0-2_LAYER1
  6
CONTINUOUS
 62
    1
 10
14434.560777999999
 20
5575.2013790000001
 11
14434.560777999999
 21
5375.2013790000001
  0
LINE
  8
_0-2_LAYER1
  6
CONTINUOUS
 62
    1
 10
13934.560777999999
 20
5575.2013790000001
 11
14434.560777999999
 21
5575.2013790000001
  0
TEXT
  8
_0-2_LAYER1
 62
    7
 10
14132.060777999999
 20
5595.2013790000001
 40
140
 41
0.8
 50
0
  1
50
  0
LINE
  8
_0-2_LAYER1
  6
CONTINUOUS
 62
    1
 10
14434.560777999999
 20
5575.2013790000001
 11
14734.560777999999
 21
5575.2013790000001
  0
TEXT
  8
_0-2_LAYER1
 62
    7
 10
14532.060777999999
 20
5595.2013790000001
 40
140
 41
0.8
 50
0
  1
30
  0
LINE
  8
_0-2_LAYER1
  6
CONTINUOUS
 62
    1
 10
14734.560777999999
 20
5575.2013790000001
 11
14734.560777999999
 21
5375.2013790000001
  0
LINE
  8
_0-2_LAYER1
  6
CONTINUOUS
 62
    1
 10
15234.560777999999
 20
5575.2013790000001
 11
15234.560777999999
 21
5375.2013790000001
  0
LINE
  8
_0-2_LAYER1
  6
CONTINUOUS
 62
    1
 10
14734.560777999999
 20
5575.2013790000001
 11
15234.560777999999
 21
5575.2013790000001
  0
TEXT
  8
_0-2_LAYER1
 62
    7
 10
14932.060777999999
 20
5595.2013790000001
 40
140
 41
0.8
 50
0
  1
50
  0
LINE
  8
_0-2_LAYER1
  6
CONTINUOUS
 62
    1
 10
15484.560777999999
 20
5575.2013790000001
 11
15484.560777999999
 21
5375.2013790000001
  0
LINE
  8
_0-2_LAYER1
  6
CONTINUOUS
 62
    1
 10
15234.560777999999
 20
5575.2013790000001
 11
15484.560777999999
 21
5575.2013790000001
  0
TEXT
  8
_0-2_LAYER1
 62
    7
 10
15307.060777999999
 20
5595.2013790000001
 40
140
 41
0.8
 50
0
  1
25
  0
LINE
  8
_0-2_LAYER1
  6
CONTINUOUS
 62
    1
 10
15484.560777999999
 20
5775.2013790000001
 11
15484.560777999999
 21
5575.2013790000001
  0
LINE
  8
_0-2_LAYER1
  6
CONTINUOUS
 62
    1
 10
6484.560778
 20
5775.2013790000001
 11
6484.560778
 21
5575.2013790000001
  0
LINE
  8
_0-2_LAYER1
  6
CONTINUOUS
 62
    1
 10
15484.560777999999
 20
5775.2013790000001
 11
6484.560778
 21
5775.2013790000001
  0
TEXT
  8
_0-2_LAYER1
 62
    7
 10
10905.810777999999
 20
5795.2013790000001
 40
140
 41
0.8
 50
-0.0000000000000121
  1
900
  0
CIRCLE
  8
_0-2_LAYER1
  6
CONTINUOUS
 62
    1
 10
6984.560778
 20
5158.0257280000005
 40
25
  0
CIRCLE
  8
_0-2_LAYER1
  6
CONTINUOUS
 62
    1
 10
14984.560777999999
 20
5158.0257280000005
 40
25
  0
CIRCLE
  8
_0-2_LAYER1
  6
CONTINUOUS
 62
    1
 10
8984.5607779999991
 20
5158.0257280000005
 40
25
  0
CIRCLE
  8
_0-2_LAYER1
  6
CONTINUOUS
 62
    1
 10
10984.560777999999
 20
5158.0257280000005
 40
25
  0
CIRCLE
  8
_0-2_LAYER1
  6
CONTINUOUS
 62
    1
 10
12984.560777999999
 20
5158.0257280000005
 40
25
  0
LINE
  8
_0-2_LAYER1
  6
CONTINUOUS
 62
    1
 10
6484.560778
 20
3801.9543190000004
 11
15484.560777999999
 21
3801.9543190000004
  0
ARC
  8
_0-2_LAYER1
  6
CONTINUOUS
 62
    1
 10
10984.560777999999
 20
3811.9543190000004
 40
110
 50
56.038573999999997
 51
123.96142600000002
  0
ARC
  8
_0-2_LAYER1
  6
CONTINUOUS
 62
    1
 10
10734.560777999999
 20
3911.9543190000004
 40
110
 50
236.03857400000004
 51
303.96142600000002
  0
ARC
  8
_0-2_LAYER1
  6
CONTINUOUS
 62
    1
 10
10484.560777999999
 20
3791.9543190000004
 40
110
 50
56.038573999999997
 51
123.96142600000002
  0
ARC
  8
_0-2_LAYER1
  6
CONTINUOUS
 62
    1
 10
10234.560777999999
 20
3911.9543190000004
 40
110
 50
236.03857400000004
 51
303.96142600000002
  0
LINE
  8
_0-2_LAYER1
  6
CONTINUOUS
 62
    1
 10
10296.010587000001
 20
3820.7187949999998
 11
10423.110968999999
 21
3883.1898439999995
  0
LINE
  8
_0-2_LAYER1
  6
CONTINUOUS
 62
    1
 10
10546.010587000001
 20
3883.1898439999995
 11
10673.110968999999
 21
3819.1513970000001
  0
LINE
  8
_0-2_LAYER1
  6
CONTINUOUS
 62
    1
 10
10923.110968999999
 20
3903.1898439999995
 11
10796.010587000001
 21
3820.7187949999998
  0
LINE
  8
_0-2_LAYER1
  6
CONTINUOUS
 62
    1
 10
10046.010587000001
 20
3903.1898439999995
 11
10173.110968999999
 21
3820.7187949999998
  0
ARC
  8
_0-2_LAYER1
  6
CONTINUOUS
 62
    1
 10
9984.5607779999991
 20
3811.9543190000004
 40
110
 50
56.038573999999997
 51
123.96142600000002
  0
ARC
  8
_0-2_LAYER1
  6
CONTINUOUS
 62
    1
 10
8984.5607779999991
 20
3811.9543190000004
 40
110
 50
56.038573999999997
 51
123.96142600000002
  0
LINE
  8
_0-2_LAYER1
  6
CONTINUOUS
 62
    1
 10
9046.0105870000007
 20
3903.1898439999995
 11
9173.1109689999994
 21
3820.7187949999998
  0
LINE
  8
_0-2_LAYER1
  6
CONTINUOUS
 62
    1
 10
9923.1109689999994
 20
3903.1898439999995
 11
9796.0105870000007
 21
3820.7187949999998
  0
LINE
  8
_0-2_LAYER1
  6
CONTINUOUS
 62
    1
 10
9546.0105870000007
 20
3883.1898439999995
 11
9673.1109689999994
 21
3819.1513970000001
  0
LINE
  8
_0-2_LAYER1
  6
CONTINUOUS
 62
    1
 10
9296.0105870000007
 20
3820.7187949999998
 11
9423.1109689999994
 21
3883.1898439999995
  0
ARC
  8
_0-2_LAYER1
  6
CONTINUOUS
 62
    1
 10
9234.5607779999991
 20
3911.9543190000004
 40
110
 50
236.03857400000004
 51
303.96142600000002
  0
ARC
  8
_0-2_LAYER1
  6
CONTINUOUS
 62
    1
 10
9484.5607779999991
 20
3791.9543190000004
 40
110
 50
56.038573999999997
 51
123.96142600000002
  0
ARC
  8
_0-2_LAYER1
  6
CONTINUOUS
 62
    1
 10
9734.5607779999991
 20
3911.9543190000004
 40
110
 50
236.03857400000004
 51
303.96142600000002
  0
ARC
  8
_0-2_LAYER1
  6
CONTINUOUS
 62
    1
 10
8734.5607779999991
 20
3911.9543190000004
 40
110
 50
236.03857400000004
 51
303.96142600000002
  0
ARC
  8
_0-2_LAYER1
  6
CONTINUOUS
 62
    1
 10
8484.5607779999991
 20
3791.9543190000004
 40
110
 50
56.038573999999997
 51
123.96142600000002
  0
ARC
  8
_0-2_LAYER1
  6
CONTINUOUS
 62
    1
 10
8234.5607779999991
 20
3911.9543190000004
 40
110
 50
236.03857400000004
 51
303.96142600000002
  0
LINE
  8
_0-2_LAYER1
  6
CONTINUOUS
 62
    1
 10
8296.0105870000007
 20
3820.7187949999998
 11
8423.1109689999994
 21
3883.1898439999995
  0
LINE
  8
_0-2_LAYER1
  6
CONTINUOUS
 62
    1
 10
8546.0105870000007
 20
3883.1898439999995
 11
8673.1109689999994
 21
3819.1513970000001
  0
LINE
  8
_0-2_LAYER1
  6
CONTINUOUS
 62
    1
 10
8923.1109689999994
 20
3903.1898439999995
 11
8796.0105870000007
 21
3820.7187949999998
  0
LINE
  8
_0-2_LAYER1
  6
CONTINUOUS
 62
    1
 10
8046.0105869999998
 20
3903.1898439999995
 11
8173.1109690000003
 21
3820.7187949999998
  0
ARC
  8
_0-2_LAYER1
  6
CONTINUOUS
 62
    1
 10
7984.560778
 20
3811.9543190000004
 40
110
 50
56.038573999999997
 51
123.96142600000002
  0
ARC
  8
_0-2_LAYER1
  6
CONTINUOUS
 62
    1
 10
6984.560778
 20
3811.9543190000004
 40
110
 50
56.038573999999997
 51
123.96142600000002
  0
LINE
  8
_0-2_LAYER1
  6
CONTINUOUS
 62
    1
 10
7046.0105869999998
 20
3903.1898439999995
 11
7173.1109690000003
 21
3820.7187949999998
  0
LINE
  8
_0-2_LAYER1
  6
CONTINUOUS
 62
    1
 10
7923.1109690000003
 20
3903.1898439999995
 11
7796.0105869999998
 21
3820.7187949999998
  0
LINE
  8
_0-2_LAYER1
  6
CONTINUOUS
 62
    1
 10
7546.0105869999998
 20
3883.1898439999995
 11
7673.1109690000003
 21
3819.1513970000001
  0
LINE
  8
_0-2_LAYER1
  6
CONTINUOUS
 62
    1
 10
7296.0105869999998
 20
3820.7187949999998
 11
7423.1109690000003
 21
3883.1898439999995
  0
ARC
  8
_0-2_LAYER1
  6
CONTINUOUS
 62
    1
 10
7234.560778
 20
3911.9543190000004
 40
110
 50
236.03857400000004
 51
303.96142600000002
  0
ARC
  8
_0-2_LAYER1
  6
CONTINUOUS
 62
    1
 10
7484.560778
 20
3791.9543190000004
 40
110
 50
56.038573999999997
 51
123.96142600000002
  0
ARC
  8
_0-2_LAYER1
  6
CONTINUOUS
 62
    1
 10
7734.560778
 20
3911.9543190000004
 40
110
 50
236.03857400000004
 51
303.96142600000002
  0
ARC
  8
_0-2_LAYER1
  6
CONTINUOUS
 62
    1
 10
6734.560778
 20
3911.9543190000004
 40
110
 50
270
 51
303.96142600000002
  0
LINE
  8
_0-2_LAYER1
  6
CONTINUOUS
 62
    1
 10
6923.1109690000003
 20
3903.1898439999995
 11
6796.0105869999998
 21
3820.7187949999998
  0
LINE
  8
_0-2_LAYER1
  6
CONTINUOUS
 62
    1
 10
15046.010587000001
 20
3903.1898439999995
 11
15173.110968999999
 21
3820.7187949999998
  0
ARC
  8
_0-2_LAYER1
  6
CONTINUOUS
 62
    1
 10
15234.560777999999
 20
3911.9543190000004
 40
110
 50
236.03857400000004
 51
270
  0
ARC
  8
_0-2_LAYER1
  6
CONTINUOUS
 62
    1
 10
14234.560777999999
 20
3911.9543190000004
 40
110
 50
236.03857400000004
 51
303.96142600000002
  0
ARC
  8
_0-2_LAYER1
  6
CONTINUOUS
 62
    1
 10
14484.560777999999
 20
3791.9543190000004
 40
110
 50
56.038573999999997
 51
123.96142600000002
  0
ARC
  8
_0-2_LAYER1
  6
CONTINUOUS
 62
    1
 10
14734.560777999999
 20
3911.9543190000004
 40
110
 50
236.03857400000004
 51
303.96142600000002
  0
LINE
  8
_0-2_LAYER1
  6
CONTINUOUS
 62
    1
 10
14673.110968999999
 20
3820.7187949999998
 11
14546.010587000001
 21
3883.1898439999995
  0
LINE
  8
_0-2_LAYER1
  6
CONTINUOUS
 62
    1
 10
14423.110968999999
 20
3883.1898439999995
 11
14296.010587000001
 21
3819.1513970000001
  0
LINE
  8
_0-2_LAYER1
  6
CONTINUOUS
 62
    1
 10
14046.010587000001
 20
3903.1898439999995
 11
14173.110968999999
 21
3820.7187949999998
  0
LINE
  8
_0-2_LAYER1
  6
CONTINUOUS
 62
    1
 10
14923.110968999999
 20
3903.1898439999995
 11
14796.010587000001
 21
3820.7187949999998
  0
ARC
  8
_0-2_LAYER1
  6
CONTINUOUS
 62
    1
 10
14984.560777999999
 20
3811.9543190000004
 40
110
 50
56.038573999999997
 51
123.96142600000002
  0
ARC
  8
_0-2_LAYER1
  6
CONTINUOUS
 62
    1
 10
13984.560777999999
 20
3811.9543190000004
 40
110
 50
56.038573999999997
 51
123.96142600000002
  0
LINE
  8
_0-2_LAYER1
  6
CONTINUOUS
 62
    1
 10
13923.110968999999
 20
3903.1898439999995
 11
13796.010587000001
 21
3820.7187949999998
  0
LINE
  8
_0-2_LAYER1
  6
CONTINUOUS
 62
    1
 10
13046.010587000001
 20
3903.1898439999995
 11
13173.110968999999
 21
3820.7187949999998
  0
LINE
  8
_0-2_LAYER1
  6
CONTINUOUS
 62
    1
 10
13423.110968999999
 20
3883.1898439999995
 11
13296.010587000001
 21
3819.1513970000001
  0
LINE
  8
_0-2_LAYER1
  6
CONTINUOUS
 62
    1
 10
13673.110968999999
 20
3820.7187949999998
 11
13546.010587000001
 21
3883.1898439999995
  0
ARC
  8
_0-2_LAYER1
  6
CONTINUOUS
 62
    1
 10
13734.560777999999
 20
3911.9543190000004
 40
110
 50
236.03857400000004
 51
303.96142600000002
  0
ARC
  8
_0-2_LAYER1
  6
CONTINUOUS
 62
    1
 10
13484.560777999999
 20
3791.9543190000004
 40
110
 50
56.038573999999997
 51
123.96142600000002
  0
ARC
  8
_0-2_LAYER1
  6
CONTINUOUS
 62
    1
 10
13234.560777999999
 20
3911.9543190000004
 40
110
 50
236.03857400000004
 51
303.96142600000002
  0
ARC
  8
_0-2_LAYER1
  6
CONTINUOUS
 62
    1
 10
12234.560777999999
 20
3911.9543190000004
 40
110
 50
236.03857400000004
 51
303.96142600000002
  0
ARC
  8
_0-2_LAYER1
  6
CONTINUOUS
 62
    1
 10
12484.560777999999
 20
3791.9543190000004
 40
110
 50
56.038573999999997
 51
123.96142600000002
  0
ARC
  8
_0-2_LAYER1
  6
CONTINUOUS
 62
    1
 10
12734.560777999999
 20
3911.9543190000004
 40
110
 50
236.03857400000004
 51
303.96142600000002
  0
LINE
  8
_0-2_LAYER1
  6
CONTINUOUS
 62
    1
 10
12673.110968999999
 20
3820.7187949999998
 11
12546.010587000001
 21
3883.1898439999995
  0
LINE
  8
_0-2_LAYER1
  6
CONTINUOUS
 62
    1
 10
12423.110968999999
 20
3883.1898439999995
 11
12296.010587000001
 21
3819.1513970000001
  0
LINE
  8
_0-2_LAYER1
  6
CONTINUOUS
 62
    1
 10
12046.010587000001
 20
3903.1898439999995
 11
12173.110968999999
 21
3820.7187949999998
  0
LINE
  8
_0-2_LAYER1
  6
CONTINUOUS
 62
    1
 10
12923.110968999999
 20
3903.1898439999995
 11
12796.010587000001
 21
3820.7187949999998
  0
ARC
  8
_0-2_LAYER1
  6
CONTINUOUS
 62
    1
 10
12984.560777999999
 20
3811.9543190000004
 40
110
 50
56.038573999999997
 51
123.96142600000002
  0
ARC
  8
_0-2_LAYER1
  6
CONTINUOUS
 62
    1
 10
11984.560777999999
 20
3811.9543190000004
 40
110
 50
56.038573999999997
 51
123.96142600000002
  0
LINE
  8
_0-2_LAYER1
  6
CONTINUOUS
 62
    1
 10
11923.110968999999
 20
3903.1898439999995
 11
11796.010587000001
 21
3820.7187949999998
  0
LINE
  8
_0-2_LAYER1
  6
CONTINUOUS
 62
    1
 10
11046.010587000001
 20
3903.1898439999995
 11
11173.110968999999
 21
3820.7187949999998
  0
LINE
  8
_0-2_LAYER1
  6
CONTINUOUS
 62
    1
 10
11423.110968999999
 20
3883.1898439999995
 11
11296.010587000001
 21
3819.1513970000001
  0
LINE
  8
_0-2_LAYER1
  6
CONTINUOUS
 62
    1
 10
11673.110968999999
 20
3820.7187949999998
 11
11546.010587000001
 21
3883.1898439999995
  0
ARC
  8
_0-2_LAYER1
  6
CONTINUOUS
 62
    1
 10
11734.560777999999
 20
3911.9543190000004
 40
110
 50
236.03857400000004
 51
303.96142600000002
  0
ARC
  8
_0-2_LAYER1
  6
CONTINUOUS
 62
    1
 10
11484.560777999999
 20
3791.9543190000004
 40
110
 50
56.038573999999997
 51
123.96142600000002
  0
ARC
  8
_0-2_LAYER1
  6
CONTINUOUS
 62
    1
 10
11234.560777999999
 20
3911.9543190000004
 40
110
 50
236.03857400000004
 51
303.96142600000002
  0
LINE
  8
_0-2_LAYER1
  6
CONTINUOUS
 62
    1
 10
15484.560777999999
 20
3961.9543190000004
 11
15484.560777999999
 21
3801.9543190000004
  0
LINE
  8
_0-2_LAYER1
  6
CONTINUOUS
 62
    1
 10
6484.560778
 20
3801.9543190000004
 11
6484.560778
 21
3961.9543190000004
  0
LINE
  8
_0-2_LAYER1
  6
CONTINUOUS
 62
    1
 10
6484.560778
 20
3961.9543190000004
 11
15484.560777999999
 21
3961.9543190000004
  0
TEXT
  8
_0-2_LAYER1
 62
    7
 10
5261.5607780000009
 20
8884.1304700000001
 40
140
 41
0.8
 50
0
  1
水抜き穴5φ
  0
CIRCLE
  8
_0-2_LAYER1
  6
CONTINUOUS
 62
    1
 10
14595.560777999999
 20
9760.1304700000001
 40
25
  0
CIRCLE
  8
_0-2_LAYER1
  6
CONTINUOUS
 62
    1
 10
13795.560777999999
 20
9480.1304700000001
 40
25
  0
CIRCLE
  8
_0-2_LAYER1
  6
CONTINUOUS
 62
    1
 10
12995.560777999999
 20
9760.1304700000001
 40
25
  0
CIRCLE
  8
_0-2_LAYER1
  6
CONTINUOUS
 62
    1
 10
12195.560777999999
 20
9480.1304700000001
 40
25
  0
CIRCLE
  8
_0-2_LAYER1
  6
CONTINUOUS
 62
    1
 10
11395.560777999999
 20
9760.1304700000001
 40
25
  0
CIRCLE
  8
_0-2_LAYER1
  6
CONTINUOUS
 62
    1
 10
10595.560777999999
 20
9480.1304700000001
 40
25
  0
CIRCLE
  8
_0-2_LAYER1
  6
CONTINUOUS
 62
    1
 10
9795.5607779999991
 20
9760.1304700000001
 40
25
  0
CIRCLE
  8
_0-2_LAYER1
  6
CONTINUOUS
 62
    1
 10
8995.5607779999991
 20
9480.1304700000001
 40
25
  0
CIRCLE
  8
_0-2_LAYER1
  6
CONTINUOUS
 62
    1
 10
8195.5607779999991
 20
9760.1304700000001
 40
25
  0
CIRCLE
  8
_0-2_LAYER1
  6
CONTINUOUS
 62
    1
 10
7395.560778
 20
9480.1304700000001
 40
25
  0
LINE
  8
_0-2_LAYER1
  6
CONTINUOUS
 62
    1
 10
7395.560778
 20
9480.1304700000001
 11
5996.5607780000009
 21
8884.1304700000001
  0
LINE
  8
_0-2_LAYER1
  6
CONTINUOUS
 62
    1
 10
5996.5607780000009
 20
8884.1304700000001
 11
5261.5607780000009
 21
8884.1304700000001
  0
TEXT
  8
_0-2_LAYER1
 62
    7
 10
1221.5539739027281
 20
10069.13047
 40
280
 41
1
 50
0
  1
内臓型棟換気ｼｽﾃﾑ
  0
TEXT
  8
_0-2_LAYER1
 62
    7
 10
1221.5539739027281
 20
9462.1304700000001
 40
280
 41
1
 50
0
  1
青空80型
  0
TEXT
  8
_0-2_LAYER1
 62
    7
 10
1221.5539739027281
 20
8796.1304700000001
 40
140
 41
1
 50
0
  1
外形寸法表
  0
TEXT
  8
_0-2_LAYER1
 62
    7
 10
6416.810778
 20
10808.13047
 40
140
 41
0.8
 50
0
  1
10
  0
TEXT
  8
_0-2_LAYER1
 62
    7
 10
10864.310777999999
 20
10808.13047
 40
140
 41
0.8
 50
0
  1
890
  0
TEXT
  8
_0-2_LAYER1
 62
    7
 10
6686.810778
 20
10608.13047
 40
140
 41
0.8
 50
0
  1
44
  0
TEXT
  8
_0-2_LAYER1
 62
    7
 10
7351.810778
 20
10608.13047
 40
140
 41
0.8
 50
0
  1
89
  0
TEXT
  8
_0-2_LAYER1
 62
    7
 10
8241.8107779999991
 20
10608.13047
 40
140
 41
0.8
 50
0
  1
89
  0
TEXT
  8
_0-2_LAYER1
 62
    7
 10
9131.8107779999991
 20
10608.13047
 40
140
 41
0.8
 50
0
  1
89
  0
TEXT
  8
_0-2_LAYER1
 62
    7
 10
10021.810777999999
 20
10608.13047
 40
140
 41
0.8
 50
0
  1
89
  0
TEXT
  8
_0-2_LAYER1
 62
    7
 10
10911.810777999999
 20
10608.13047
 40
140
 41
0.8
 50
0
  1
89
  0
TEXT
  8
_0-2_LAYER1
 62
    7
 10
11801.810777999999
 20
10608.13047
 40
140
 41
0.8
 50
0
  1
89
  0
TEXT
  8
_0-2_LAYER1
 62
    7
 10
12691.810777999999
 20
10608.13047
 40
140
 41
0.8
 50
0
  1
89
  0
TEXT
  8
_0-2_LAYER1
 62
    7
 10
13581.810777999999
 20
10608.13047
 40
140
 41
0.8
 50
0
  1
89
  0
TEXT
  8
_0-2_LAYER1
 62
    7
 10
14471.810777999999
 20
10608.13047
 40
140
 41
0.8
 50
0
  1
89
  0
TEXT
  8
_0-2_LAYER1
 62
    7
 10
15141.810777999999
 20
10608.13047
 40
140
 41
0.8
 50
0
  1
45
  0
TEXT
  8
_0-2_LAYER1
 62
    7
 10
7139.310778
 20
8748.1304700000001
 40
140
 41
0.8
 50
0
  1
145
  0
TEXT
  8
_0-2_LAYER1
 62
    7
 10
8864.3107779999991
 20
8748.1304700000001
 40
140
 41
0.8
 50
0
  1
200
  0
TEXT
  8
_0-2_LAYER1
 62
    7
 10
9916.8107779999991
 20
8824.1304700000001
 40
140
 41
0.8
 50
0
  1
30
  0
TEXT
  8
_0-2_LAYER1
 62
    7
 10
10431.164843999999
 20
9076.3804700000001
 40
140
 41
0.8
 50
90
  1
20
  0
TEXT
  8
_0-2_LAYER1
 62
    7
 10
10864.310777999999
 20
8748.1304700000001
 40
140
 41
0.8
 50
0
  1
200
  0
TEXT
  8
_0-2_LAYER1
 62
    7
 10
12864.310777999999
 20
8748.1304700000001
 40
140
 41
0.8
 50
0
  1
200
  0
TEXT
  8
_0-2_LAYER1
 62
    7
 10
14589.310777999999
 20
8748.1304700000001
 40
140
 41
0.8
 50
0
  1
145
  0
LINE
  8
_0-2_LAYER1
  6
CONTINUOUS
 62
    3
 10
3758.8279139999995
 20
5211.3475280000002
 11
3833.172669
 21
5104.7039279999999
  0
LINE
  8
_0-2_LAYER1
  6
CONTINUOUS
 62
    3
 10
3833.172669
 20
5104.7039279999999
 11
3833.172669
 21
4804.7039279999999
  0
LINE
  8
_0-2_LAYER1
  6
CONTINUOUS
 62
    3
 10
3833.172669
 20
4804.7039279999999
 11
3764.7351590000007
 21
4731.7909170000003
  0
LINE
  8
_0-2_LAYER1
  6
CONTINUOUS
 62
    3
 10
3764.7351590000007
 20
4731.7909170000003
 11
3823.2626290000003
 21
4650.7074089999996
  0
LINE
  8
_0-2_LAYER1
  6
CONTINUOUS
 62
    3
 10
3823.2626290000003
 20
4650.7074089999996
 11
3744.5433020000009
 21
4361.2194689999997
  0
LINE
  8
_0-2_LAYER1
  6
CONTINUOUS
 62
    3
 10
3744.5433020000009
 20
4361.2194689999997
 11
3860.3384779999997
 21
4329.7317380000004
  0
LINE
  8
_0-2_LAYER1
  6
CONTINUOUS
 62
    3
 10
3770.7830779999999
 20
4457.7154490000003
 11
3886.5782540000005
 21
4426.2277180000001
  0
LINE
  8
_0-2_LAYER1
  6
CONTINUOUS
 62
    3
 10
3860.3384779999997
 20
4329.7317380000004
 11
3886.5782540000005
 21
4426.2277180000001
  0
LINE
  8
_0-2_LAYER1
  6
CONTINUOUS
 62
    1
 10
4097.6484410000003
 20
5289.0786719999996
 11
3933.5813640000006
 21
5174.7021260000001
  0
LINE
  8
_0-2_LAYER1
  6
CONTINUOUS
 62
    1
 10
4023.3036860000002
 20
5395.7222720000009
 11
3859.236609
 21
5281.3457259999996
  0
LINE
  8
_0-2_LAYER1
  6
CONTINUOUS
 62
    1
 10
4097.6484410000003
 20
5289.0786719999996
 11
4023.3036860000002
 21
5395.7222720000009
  0
TEXT
  8
_0-2_LAYER1
 62
    7
 10
4046.8589280000006
 20
5396.9057350000003
 40
140
 41
0.8
 50
-55.118380999999978
  1
13
  0
LINE
  8
_0-2_LAYER1
  6
CONTINUOUS
 62
    1
 10
4146.5078759999997
 20
5104.7039279999999
 11
3946.5078760000001
 21
5104.7039279999999
  0
LINE
  8
_0-2_LAYER1
  6
CONTINUOUS
 62
    1
 10
4146.5078759999997
 20
4804.7039279999999
 11
3946.5078760000001
 21
4804.7039279999999
  0
LINE
  8
_0-2_LAYER1
  6
CONTINUOUS
 62
    1
 10
4146.5078759999997
 20
5104.7039279999999
 11
4146.5078759999997
 21
4804.7039279999999
  0
TEXT
  8
_0-2_LAYER1
 62
    7
 10
4306.5078759999997
 20
4902.2039279999999
 40
140
 41
0.8
 50
90
  1
30
  0
LINE
  8
_0-2_LAYER1
  6
CONTINUOUS
 62
    1
 10
3649.3949070000003
 20
4977.2011560000001
 11
3795.22093
 21
4840.3261359999997
  0
LINE
  8
_0-2_LAYER1
  6
CONTINUOUS
 62
    1
 10
3580.957397000001
 20
4904.2881450000004
 11
3726.7834200000007
 21
4767.413125
  0
LINE
  8
_0-2_LAYER1
  6
CONTINUOUS
 62
    1
 10
3649.3949070000003
 20
4977.2011560000001
 11
3580.957397000001
 21
4904.2881450000004
  0
TEXT
  8
_0-2_LAYER1
 62
    7
 10
3564.663857
 20
4916.152822
 40
140
 41
0.8
 50
46.813518000000009
  1
10
  0
LINE
  8
_0-2_LAYER1
  6
CONTINUOUS
 62
    1
 10
3542.1888660000004
 20
4571.153174
 11
3704.3558810000004
 21
4688.2081150000004
  0
LINE
  8
_0-2_LAYER1
  6
CONTINUOUS
 62
    1
 10
3600.7163369999998
 20
4490.0696660000003
 11
3762.8833519999998
 21
4607.1246080000001
  0
LINE
  8
_0-2_LAYER1
  6
CONTINUOUS
 62
    1
 10
3542.1888660000004
 20
4571.153174
 11
3600.7163369999998
 21
4490.0696660000003
  0
LINE
  8
_0-2_LAYER1
  6
CONTINUOUS
 62
    1
 10
3671.987298
 20
4094.3969630000001
 11
3724.4668499999998
 21
4287.3889230000004
  0
LINE
  8
_0-2_LAYER1
  6
CONTINUOUS
 62
    1
 10
3787.7824740000001
 20
4062.909232
 11
3840.2620259999999
 21
4255.9011920000003
  0
LINE
  8
_0-2_LAYER1
  6
CONTINUOUS
 62
    1
 10
3671.987298
 20
4094.3969630000001
 11
3787.7824740000001
 21
4062.909232
  0
TEXT
  8
_0-2_LAYER1
 62
    7
 10
3637.2408559999994
 20
3938.0354109999998
 40
140
 41
0.8
 50
-15.212383999999957
  1
12
  0
LINE
  8
_0-2_LAYER1
  6
CONTINUOUS
 62
    1
 10
4092.2599439999999
 20
4266.6662379999998
 11
3899.2679840000005
 21
4319.1457899999996
  0
LINE
  8
_0-2_LAYER1
  6
CONTINUOUS
 62
    1
 10
4118.4997190000004
 20
4363.1622180000004
 11
3925.507759000001
 21
4415.6417700000002
  0
LINE
  8
_0-2_LAYER1
  6
CONTINUOUS
 62
    1
 10
4092.2599439999999
 20
4266.6662379999998
 11
4118.4997190000004
 21
4363.1622180000004
  0
TEXT
  8
_0-2_LAYER1
 62
    7
 10
4072.3047529999994
 20
4269.5017939999998
 40
140
 41
0.8
 50
74.787616000000043
  1
10
  0
LINE
  8
_0-2_LAYER1
  6
CONTINUOUS
 62
    1
 10
4170.9792710000002
 20
4556.1541779999998
 11
3977.9873110000008
 21
4608.6337299999996
  0
LINE
  8
_0-2_LAYER1
  6
CONTINUOUS
 62
    1
 10
4118.4997190000004
 20
4363.1622180000004
 11
4170.9792710000002
 21
4556.1541779999998
  0
TEXT
  8
_0-2_LAYER1
 62
    7
 10
4111.6644170000009
 20
4414.2457640000002
 40
140
 41
0.8
 50
74.787616000000043
  1
20
  0
LINE
  8
_0-2_LAYER1
  6
CONTINUOUS
 62
    3
 10
3724.0607780000005
 20
1879.1304700000001
 11
3909.0607780000005
 21
1979.1304700000001
  0
LINE
  8
_0-2_LAYER1
  6
CONTINUOUS
 62
    3
 10
3916.0607780000005
 20
1149.1304700000001
 11
3842.060778
 21
1149.1304700000001
  0
LINE
  8
_0-2_LAYER1
  6
CONTINUOUS
 62
    3
 10
3717.060778
 20
1871.1304700000001
 11
3835.060778
 21
1155.1304700000003
  0
ARC
  8
_0-2_LAYER1
  6
CONTINUOUS
 62
    3
 10
3842.060778
 20
1156.1304700000001
 40
7
 50
188.53999999999999
 51
270
  0
ARC
  8
_0-2_LAYER1
  6
CONTINUOUS
 62
    3
 10
3724.0607780000005
 20
1872.1304700000001
 40
7
 50
90
 51
188.53
  0
LINE
  8
_0-2_LAYER1
  6
CONTINUOUS
 62
    3
 10
3916.0607780000005
 20
1899.1304700000001
 11
3916.0607780000005
 21
1972.1304700000001
  0
ARC
  8
_0-2_LAYER1
  6
CONTINUOUS
 62
    3
 10
3909.0607780000005
 20
1972.1304700000001
 40
7
 50
0
 51
90
  0
LINE
  8
_0-2_LAYER1
  6
CONTINUOUS
 62
    3
 10
3916.0607780000005
 20
1151.1304700000001
 11
3842.060778
 21
1151.1304700000001
  0
LINE
  8
_0-2_LAYER1
  6
CONTINUOUS
 62
    3
 10
3719.0607780000005
 20
1871.1304700000001
 11
3837.060778
 21
1155.1304700000003
  0
ARC
  8
_0-2_LAYER1
  6
CONTINUOUS
 62
    3
 10
3842.060778
 20
1156.1304700000001
 40
5
 50
188.56999999999999
 51
270
  0
LINE
  8
_0-2_LAYER1
  6
CONTINUOUS
 62
    3
 10
3724.0607780000005
 20
1877.1304700000001
 11
3909.0607780000005
 21
1977.1304700000001
  0
ARC
  8
_0-2_LAYER1
  6
CONTINUOUS
 62
    3
 10
3724.0607780000005
 20
1872.1304700000001
 40
5
 50
90
 51
188.56999999999996
  0
LINE
  8
_0-2_LAYER1
  6
CONTINUOUS
 62
    3
 10
3914.0607780000005
 20
1899.1304700000001
 11
3914.0607780000005
 21
1972.1304700000001
  0
ARC
  8
_0-2_LAYER1
  6
CONTINUOUS
 62
    3
 10
3909.0607780000005
 20
1972.1304700000001
 40
5
 50
0
 51
90
  0
LINE
  8
_0-2_LAYER1
  6
CONTINUOUS
 62
    3
 10
3916.0607780000005
 20
1151.1304700000001
 11
3916.0607780000005
 21
1149.1304700000001
  0
LINE
  8
_0-2_LAYER1
  6
CONTINUOUS
 62
    3
 10
3914.0607780000005
 20
1899.1304700000001
 11
3916.0607780000005
 21
1899.1304700000001
  0
LINE
  8
_0-2_LAYER1
  6
CONTINUOUS
 62
    1
 10
3716.0607780000005
 20
2307.811463
 11
3716.0607780000005
 21
2107.811463
  0
LINE
  8
_0-2_LAYER1
  6
CONTINUOUS
 62
    1
 10
3916.0607780000005
 20
2307.811463
 11
3916.0607780000005
 21
2107.811463
  0
LINE
  8
_0-2_LAYER1
  6
CONTINUOUS
 62
    1
 10
3716.0607780000005
 20
2307.811463
 11
3916.0607780000005
 21
2307.811463
  0
TEXT
  8
_0-2_LAYER1
 62
    7
 10
3763.5607780000005
 20
2327.811463
 40
140
 41
0.8
 50
0
  1
20
  0
LINE
  8
_0-2_LAYER1
  6
CONTINUOUS
 62
    1
 10
3836.0607780000005
 20
857.97596799999951
 11
3836.0607780000005
 21
1057.9759679999995
  0
LINE
  8
_0-2_LAYER1
  6
CONTINUOUS
 62
    1
 10
3916.0607780000005
 20
857.97596799999951
 11
3916.0607780000005
 21
1057.9759679999995
  0
LINE
  8
_0-2_LAYER1
  6
CONTINUOUS
 62
    1
 10
3836.0607780000005
 20
857.97596799999951
 11
3916.0607780000005
 21
857.97596799999951
  0
TEXT
  8
_0-2_LAYER1
 62
    7
 10
3849.8107780000005
 20
877.97596799999951
 40
140
 41
0.8
 50
0
  1
8
  0
LINE
  8
_0-2_LAYER1
  6
CONTINUOUS
 62
    1
 10
4318.0422520000002
 20
1899.1304700000001
 11
4118.0422520000002
 21
1899.1304700000001
  0
LINE
  8
_0-2_LAYER1
  6
CONTINUOUS
 62
    1
 10
4318.0422520000002
 20
1979.1304700000001
 11
4118.0422520000002
 21
1979.1304700000001
  0
LINE
  8
_0-2_LAYER1
  6
CONTINUOUS
 62
    1
 10
4318.0422520000002
 20
1899.1304700000001
 11
4318.0422520000002
 21
1979.1304700000001
  0
TEXT
  8
_0-2_LAYER1
 62
    7
 10
4298.0422520000002
 20
1912.8804700000001
 40
140
 41
0.8
 50
90
  1
8
  0
LINE
  8
_0-2_LAYER1
  6
CONTINUOUS
 62
    1
 10
3360.3482919999997
 20
1149.1304700000001
 11
3560.3482919999997
 21
1149.1304700000001
  0
LINE
  8
_0-2_LAYER1
  6
CONTINUOUS
 62
    1
 10
3360.3482919999997
 20
1979.1304700000001
 11
3560.3482919999997
 21
1979.1304700000001
  0
LINE
  8
_0-2_LAYER1
  6
CONTINUOUS
 62
    1
 10
3360.3482919999997
 20
1149.1304700000001
 11
3360.3482919999997
 21
1979.1304700000001
  0
TEXT
  8
_0-2_LAYER1
 62
    7
 10
3340.3482919999997
 20
1511.6304700000001
 40
140
 41
0.8
 50
90
  1
89
  0
TEXT
  8
_0-2_LAYER1
 62
    7
 10
1221.5539739027281
 20
7296.9500132977046
 40
140
 41
1
 50
0
  1
本体
  0
TEXT
  8
_0-2_LAYER1
 62
    7
 10
1221.5539739027281
 20
6936.3561758336391
 40
140
 41
0.8
 50
0
  1
使用材料 SUS304 0.4mm
  0
TEXT
  8
_0-2_LAYER1
 62
    7
 10
1221.5539739027281
 20
1797.3388128316503
 40
140
 41
1
 50
0
  1
通気形成部材
  0
TEXT
  8
_0-2_LAYER1
 62
    7
 10
1221.5539739027281
 20
1397.6364281100791
 40
140
 41
0.8
 50
0
  1
使用材料 SUS304 0.4mm
  0
TEXT
  8
_0-0_0
 62
    7
 10
1221.5539739027281
 20
4928.3629893238431
 40
140
 41
0.8
 50
0
  1
カバー
  0
TEXT
  8
_0-0_0
 62
    7
 10
1221.5539739027258
 20
4425.2015916532937
 40
140
 41
0.8
 50
0
  1
使用材料 SUS304 0.4mm
  0
ENDSEC
  0
EOF
