  0
SECTION
  2
HEADER
  9
$ACADVER
  1
AC1009
  9
$INSBASE
 10
0
 20
0
 30
0
  9
$EXTMIN
 10
0
 20
0
  9
$EXTMAX
 10
16800
 20
11880
  9
$LIMMIN
 10
0
 20
0
  9
$LIMMAX
 10
16800
 20
11880
  9
$LTSCALE
 40
40
  0
ENDSEC
  0
SECTION
  2
TABLES
  0
TABLE
  2
LTYPE
 70
     9
  0
LTYPE
  2
CONTINUOUS
 70
    64
  3
実線
 72
    65
 73
     0
 40
0.0
  0
LTYPE
  2
DASHED1
 70
    64
  3
--  --  --  --  --  --  --  --  
 72
    65
 73
     2
 40
2.5
 49
1.25
 49
-1.25
  0
LTYPE
  2
DASHED2
 70
    64
  3
----    ----    ----    ----    
 72
    65
 73
     2
 40
5.0
 49
2.5
 49
-2.5
  0
LTYPE
  2
DASHED3
 70
    64
  3
------  ------  ------  ------  
 72
    65
 73
     2
 40
5.0
 49
3.75
 49
-1.25
  0
LTYPE
  2
CENTER1
 70
    64
  3
----- - ----- - ----- - ----- - 
 72
    65
 73
     4
 40
10.0
 49
6.25
 49
-1.25
 49
1.25
 49
-1.25
  0
LTYPE
  2
CENTER2
 70
    64
  3
----------  --  ----------  --  
 72
    65
 73
     4
 40
20.0
 49
12.5
 49
-2.5
 49
2.5
 49
-2.5
  0
LTYPE
  2
PHANTOM1
 70
    64
  3
--- - - --- - - --- - - --- - - 
 72
    65
 73
     6
 40
10.0
 49
3.25
 49
-1.25
 49
1.25
 49
-1.25
 49
1.25
 49
-1.25
  0
LTYPE
  2
PHANTOM2
 70
    64
  3
--------  -  -  --------  -  -  
 72
    65
 73
     6
 40
20.0
 49
10.0
 49
-2.5
 49
1.25
 49
-2.5
 49
1.25
 49
-2.5
  0
LTYPE
  2
DOT
 70
    64
  3
-   -   -   -   -   -   -   -   
 72
    65
 73
     2
 40
2.5
 49
0.625
 49
-1.875
  0
LTYPE
  2
DUMMY
 70
    64
  3
ダミー
 72
    65
 73
     0
 40
0.0
  0
LTYPE
  2
RAND1
 70
    64
  3
ランダム線1
 72
    65
 73
     4
 40
10.0
 49
1.0
 49
-2.0
 49
3.0
 49
-4.0
  0
LTYPE
  2
RAND2
 70
    64
  3
ランダム線2
 72
    65
 73
     4
 40
14.0
 49
2.0
 49
-3.0
 49
4.0
 49
-5.0
  0
LTYPE
  2
RAND3
 70
    64
  3
ランダム線3
 72
    65
 73
     4
 40
18.0
 49
3.0
 49
-4.0
 49
5.0
 49
-6.0
  0
LTYPE
  2
RAND4
 70
    64
  3
ランダム線4
 72
    65
 73
     4
 40
22.0
 49
4.0
 49
-5.0
 49
6.0
 49
-7.0
  0
LTYPE
  2
RAND5
 70
    64
  3
ランダム線5
 72
    65
 73
     4
 40
26.0
 49
5.0
 49
-6.0
 49
7.0
 49
-8.0
  0
LTYPE
  2
LONG1
 70
    64
  3
----------  --  ----------  --  
 72
    65
 73
     4
 40
40.0
 49
32.5
 49
-2.5
 49
2.5
 49
-2.5
  0
LTYPE
  2
LONG2
 70
    64
  3
--------  -  -  --------  -  -  
 72
    65
 73
     6
 40
40.0
 49
30.0
 49
-2.5
 49
1.25
 49
-2.5
 49
1.25
 49
-2.5
  0
LTYPE
  2
LONG3
 70
    64
  3
+++++++++++++++..+++++++++++++++
 72
    65
 73
     2
 40
40.0
 49
37.5
 49
-2.5
  0
LTYPE
  2
LONG4
 70
    64
  3
+++++++++++++++..+++++++++++++++
 72
    65
 73
     2
 40
80.0
 49
75.0
 49
-5.0
  0
LTYPE
  2
LONG5
 70
    64
  3
----------  --  ----------  --  
 72
    65
 73
     4
 40
60.0
 49
37.5
 49
-7.5
 49
7.5
 49
-7.5
  0
LTYPE
  2
dashed
 70
   64
  3
-------   -------------   ------
 72
   65
 73
    2
 40
7.5
 49
6
 49
-1.5
  0
LTYPE
  2
dashed_spaced
 70
   64
  3
----        --------        ----
 72
   65
 73
    2
 40
12
 49
6
 49
-6
  0
LTYPE
  2
long_dashed_dotted
 70
   64
  3
------------- --- --------------
 72
   65
 73
    4
 40
15.25
 49
12
 49
-1.5
 49
0.25
 49
-1.5
  0
LTYPE
  2
long_dashed_double-dotted
 70
   64
  3
----------- --- --- ------------
 72
   65
 73
    6
 40
17
 49
12
 49
-1.5
 49
0.25
 49
-1.5
 49
0.25
 49
-1.5
  0
LTYPE
  2
long_dashed_triplicate-dotted
 70
   64
  3
--------- --- --- --- ----------
 72
   65
 73
    8
 40
18.75
 49
12
 49
-1.5
 49
0.25
 49
-1.5
 49
0.25
 49
-1.5
 49
0.25
 49
-1.5
  0
LTYPE
  2
dotted
 70
   64
  3
   -       -       -       -    
 72
   65
 73
    2
 40
1.75
 49
0.25
 49
-1.5
  0
LTYPE
  2
chain
 70
   64
  3
-------------- -- --------------
 72
   65
 73
    4
 40
18.5
 49
12
 49
-1.5
 49
3.5
 49
-1.5
  0
LTYPE
  2
chain_double_dash
 70
   64
  3
------------ -- -- -------------
 72
   65
 73
    6
 40
23.5
 49
12
 49
-1.5
 49
3.5
 49
-1.5
 49
3.5
 49
-1.5
  0
LTYPE
  2
dashed_dotted
 70
   64
  3
-----------     -     ----------
 72
   65
 73
    4
 40
9.25
 49
6
 49
-1.5
 49
0.25
 49
-1.5
  0
LTYPE
  2
double-dashed_dotted
 70
   64
  3
------   -----------   -   -----
 72
   65
 73
    6
 40
16.75
 49
6
 49
-1.5
 49
6
 49
-1.5
 49
0.25
 49
-1.5
  0
LTYPE
  2
dashed_double-dotted
 70
   64
  3
---------    -    -    ---------
 72
   65
 73
    6
 40
11
 49
6
 49
-1.5
 49
0.25
 49
-1.5
 49
0.25
 49
-1.5
  0
LTYPE
  2
double-dashed_double-dotted
 70
   64
  3
-----   ---------   -   -   ----
 72
   65
 73
    8
 40
18.5
 49
6
 49
-1.5
 49
6
 49
-1.5
 49
0.25
 49
-1.5
 49
0.25
 49
-1.5
  0
LTYPE
  2
dashed_triplicate-dotted
 70
   64
  3
-------    -    -    -    ------
 72
   65
 73
    8
 40
12.75
 49
6
 49
-1.5
 49
0.25
 49
-1.5
 49
0.25
 49
-1.5
 49
0.25
 49
-1.5
  0
LTYPE
  2
double-dashed_triplicate-dotted
 70
   64
  3
-----  ---------  -  -  -  -----
 72
   65
 73
   10
 40
20.25
 49
6
 49
-1.5
 49
6
 49
-1.5
 49
0.25
 49
-1.5
 49
0.25
 49
-1.5
 49
0.25
 49
-1.5
  0
LTYPE
  2
undefined
 70
   64
  3
--------------------------------
 72
   65
 73
    0
 40
0
  0
LTYPE
  2
DASHED
 70
   64
  3
------     -----------     -----
 72
   65
 73
    2
 40
1.5
 49
1
 49
-0.5
  0
LTYPE
  2
CENTER
 70
   64
  3
---------          --  ---------
 72
   65
 73
    4
 40
4
 49
2.25
 49
-1.25
 49
0.25
 49
-0.25
  0
LTYPE
  2
PHANTOM
 70
   64
  3
--------        --  --  --------
 72
   65
 73
    6
 40
5
 49
2.75
 49
-1.25
 49
0.25
 49
-0.25
 49
0.25
 49
-0.25
  0
LTYPE
  2
_
 70
   64
  3
                                
 72
   65
 73
    0
 40
0
  0
LTYPE
  2
__21
 70
   64
  3
                                
 72
   65
 73
    0
 40
0
  0
LTYPE
  2
__22
 70
   64
  3
                                
 72
   65
 73
    0
 40
0
  0
LTYPE
  2
__23
 70
   64
  3
                                
 72
   65
 73
    0
 40
0
  0
LTYPE
  2
__24
 70
   64
  3
                                
 72
   65
 73
    0
 40
0
  0
LTYPE
  2
__25
 70
   64
  3
                                
 72
   65
 73
    0
 40
0
  0
LTYPE
  2
__26
 70
   64
  3
                                
 72
   65
 73
    0
 40
0
  0
LTYPE
  2
__27
 70
   64
  3
                                
 72
   65
 73
    0
 40
0
  0
LTYPE
  2
__28
 70
   64
  3
                                
 72
   65
 73
    0
 40
0
  0
LTYPE
  2
__29
 70
   64
  3
                                
 72
   65
 73
    0
 40
0
  0
LTYPE
  2
__30
 70
   64
  3
                                
 72
   65
 73
    0
 40
0
  0
LTYPE
  2
__31
 70
   64
  3
                                
 72
   65
 73
    0
 40
0
  0
LTYPE
  2
__32
 70
   64
  3
                                
 72
   65
 73
    0
 40
0
  0
ENDTAB
  0
TABLE
  2
STYLE
  5
3
100
AcDbSymbolTable
 70
     1
  0
STYLE
  5
10
100
AcDbSymbolTableRecord
100
AcDbTextStyleTableRecord
  2
STANDARD
 70
     0
 40
0.0
 41
1.0
 50
0.0
 71
     0
 42
0.2
  3
txt
  4
bigfont.shx
  0
STYLE
  5
26
100
AcDbSymbolTableRecord
100
AcDbTextStyleTableRecord
  2
TATEGAKI
 70
    68
 40
0.0
 41
1.0
 50
0.0
 71
     0
 42
1.0
  3
txt
  4
bigfont.shx
  0
ENDTAB
  0
TABLE
  2
LAYER
 70
    3
  0
LAYER
  2
_0-0_0
 70
   64
 62
    7
  6
CONTINUOUS
  0
LAYER
  2
_0-2_LAYER1
 70
   64
 62
    7
  6
CONTINUOUS
  0
LAYER
  2
ADD_LINE
 70
   64
 62
    7
  6
CONTINUOUS
  0
ENDTAB
  0
ENDSEC
  0
SECTION
  2
BLOCKS
  0
ENDSEC
  0
SECTION
  2
ENTITIES
  0
LINE
  8
_0-2_LAYER1
  6
CONTINUOUS
 62
    1
 10
6545.560778
 20
9840.1304700000001
 11
15445.560777999999
 21
9840.1304700000001
  0
LINE
  8
_0-2_LAYER1
  6
CONTINUOUS
 62
    1
 10
6545.560778
 20
9400.1304700000001
 11
15445.560777999999
 21
9400.1304700000001
  0
LINE
  8
_0-2_LAYER1
  6
CONTINUOUS
 62
    1
 10
6545.560778
 20
9055.1304700000001
 11
6545.560778
 21
10185.13047
  0
LINE
  8
_0-2_LAYER1
  6
CONTINUOUS
 62
    1
 10
15445.560777999999
 20
10185.13047
 11
15445.560777999999
 21
9055.1304700000001
  0
LINE
  8
_0-2_LAYER1
  6
CONTINUOUS
 62
    1
 10
6445.560778
 20
10185.13047
 11
6445.560778
 21
9055.1304700000001
  0
LINE
  8
_0-2_LAYER1
  6
CONTINUOUS
 62
    1
 10
6445.560778
 20
10185.13047
 11
7845.560778
 21
10185.13047
  0
LINE
  8
_0-2_LAYER1
  6
CONTINUOUS
 62
    1
 10
8145.560778
 20
10185.13047
 11
9845.5607779999991
 21
10185.13047
  0
LINE
  8
_0-2_LAYER1
  6
CONTINUOUS
 62
    1
 10
10145.560777999999
 20
10185.13047
 11
11845.560777999999
 21
10185.13047
  0
LINE
  8
_0-2_LAYER1
  6
CONTINUOUS
 62
    1
 10
12145.560777999999
 20
10185.13047
 11
13845.560777999999
 21
10185.13047
  0
LINE
  8
_0-2_LAYER1
  6
CONTINUOUS
 62
    1
 10
14145.560777999999
 20
10185.13047
 11
15445.560777999999
 21
10185.13047
  0
LINE
  8
_0-2_LAYER1
  6
CONTINUOUS
 62
    1
 10
6445.560778
 20
9055.1304700000001
 11
7845.560778
 21
9055.1304700000001
  0
LINE
  8
_0-2_LAYER1
  6
CONTINUOUS
 62
    1
 10
8145.560778
 20
9055.1304700000001
 11
9845.5607779999991
 21
9055.1304700000001
  0
LINE
  8
_0-2_LAYER1
  6
CONTINUOUS
 62
    1
 10
10145.560777999999
 20
9055.1304700000001
 11
11845.560777999999
 21
9055.1304700000001
  0
LINE
  8
_0-2_LAYER1
  6
CONTINUOUS
 62
    1
 10
12145.560777999999
 20
9055.1304700000001
 11
13845.560777999999
 21
9055.1304700000001
  0
LINE
  8
_0-2_LAYER1
  6
CONTINUOUS
 62
    1
 10
14145.560777999999
 20
9055.1304700000001
 11
15445.560777999999
 21
9055.1304700000001
  0
LINE
  8
_0-2_LAYER1
  6
CONTINUOUS
 62
    1
 10
7845.560778
 20
9985.1304700000001
 11
8145.560778
 21
9985.1304700000001
  0
LINE
  8
_0-2_LAYER1
  6
CONTINUOUS
 62
    1
 10
9845.5607779999991
 20
9985.1304700000001
 11
10145.560777999999
 21
9985.1304700000001
  0
LINE
  8
_0-2_LAYER1
  6
CONTINUOUS
 62
    1
 10
11845.560777999999
 20
9985.1304700000001
 11
12145.560777999999
 21
9985.1304700000001
  0
LINE
  8
_0-2_LAYER1
  6
CONTINUOUS
 62
    1
 10
13845.560777999999
 20
9985.1304700000001
 11
14145.560777999999
 21
9985.1304700000001
  0
LINE
  8
_0-2_LAYER1
  6
CONTINUOUS
 62
    1
 10
7845.560778
 20
9255.1304700000001
 11
8145.560778
 21
9255.1304700000001
  0
LINE
  8
_0-2_LAYER1
  6
CONTINUOUS
 62
    1
 10
9845.5607779999991
 20
9255.1304700000001
 11
10145.560777999999
 21
9255.1304700000001
  0
LINE
  8
_0-2_LAYER1
  6
CONTINUOUS
 62
    1
 10
11845.560777999999
 20
9255.1304700000001
 11
12145.560777999999
 21
9255.1304700000001
  0
LINE
  8
_0-2_LAYER1
  6
CONTINUOUS
 62
    1
 10
13845.560777999999
 20
9255.1304700000001
 11
14145.560777999999
 21
9255.1304700000001
  0
LINE
  8
_0-2_LAYER1
  6
CONTINUOUS
 62
    1
 10
7845.560778
 20
10185.13047
 11
7845.560778
 21
9985.1304700000001
  0
LINE
  8
_0-2_LAYER1
  6
CONTINUOUS
 62
    1
 10
7845.560778
 20
9255.1304700000001
 11
7845.560778
 21
9055.1304700000001
  0
LINE
  8
_0-2_LAYER1
  6
CONTINUOUS
 62
    1
 10
8145.560778
 20
9055.1304700000001
 11
8145.560778
 21
9255.1304700000001
  0
LINE
  8
_0-2_LAYER1
  6
CONTINUOUS
 62
    1
 10
8145.560778
 20
9985.1304700000001
 11
8145.560778
 21
10185.13047
  0
LINE
  8
_0-2_LAYER1
  6
CONTINUOUS
 62
    1
 10
9845.5607779999991
 20
10185.13047
 11
9845.5607779999991
 21
9985.1304700000001
  0
LINE
  8
_0-2_LAYER1
  6
CONTINUOUS
 62
    1
 10
9845.5607779999991
 20
9255.1304700000001
 11
9845.5607779999991
 21
9055.1304700000001
  0
LINE
  8
_0-2_LAYER1
  6
CONTINUOUS
 62
    1
 10
10145.560777999999
 20
9055.1304700000001
 11
10145.560777999999
 21
9255.1304700000001
  0
LINE
  8
_0-2_LAYER1
  6
CONTINUOUS
 62
    1
 10
10145.560777999999
 20
9985.1304700000001
 11
10145.560777999999
 21
10185.13047
  0
LINE
  8
_0-2_LAYER1
  6
CONTINUOUS
 62
    1
 10
11845.560777999999
 20
10185.13047
 11
11845.560777999999
 21
9985.1304700000001
  0
LINE
  8
_0-2_LAYER1
  6
CONTINUOUS
 62
    1
 10
11845.560777999999
 20
9255.1304700000001
 11
11845.560777999999
 21
9055.1304700000001
  0
LINE
  8
_0-2_LAYER1
  6
CONTINUOUS
 62
    1
 10
12145.560777999999
 20
9055.1304700000001
 11
12145.560777999999
 21
9255.1304700000001
  0
LINE
  8
_0-2_LAYER1
  6
CONTINUOUS
 62
    1
 10
12145.560777999999
 20
9985.1304700000001
 11
12145.560777999999
 21
10185.13047
  0
LINE
  8
_0-2_LAYER1
  6
CONTINUOUS
 62
    1
 10
13845.560777999999
 20
10185.13047
 11
13845.560777999999
 21
9985.1304700000001
  0
LINE
  8
_0-2_LAYER1
  6
CONTINUOUS
 62
    1
 10
13845.560777999999
 20
9255.1304700000001
 11
13845.560777999999
 21
9055.1304700000001
  0
LINE
  8
_0-2_LAYER1
  6
CONTINUOUS
 62
    1
 10
14145.560777999999
 20
9055.1304700000001
 11
14145.560777999999
 21
9255.1304700000001
  0
LINE
  8
_0-2_LAYER1
  6
CONTINUOUS
 62
    1
 10
14145.560777999999
 20
9985.1304700000001
 11
14145.560777999999
 21
10185.13047
  0
LINE
  8
_0-2_LAYER1
  6
CONTINUOUS
 62
    1
 10
6445.560778
 20
9710.1304700000001
 11
6545.560778
 21
9710.1304700000001
  0
LINE
  8
_0-2_LAYER1
  6
CONTINUOUS
 62
    1
 10
6545.560778
 20
9530.1304700000001
 11
6445.560778
 21
9530.1304700000001
  0
LINE
  8
_0-2_LAYER1
  6
CONTINUOUS
 62
    1
 10
6445.560778
 20
7414.1304700000001
 11
6445.560778
 21
6789.1304700000001
  0
LINE
  8
_0-2_LAYER1
  6
CONTINUOUS
 62
    1
 10
6545.560778
 20
7638.1304700000001
 11
6545.560778
 21
6793.1304700000001
  0
LINE
  8
_0-2_LAYER1
  6
CONTINUOUS
 62
    1
 10
6445.560778
 20
7414.1304700000001
 11
15445.560777999999
 21
7414.1304700000001
  0
LINE
  8
_0-2_LAYER1
  6
CONTINUOUS
 62
    1
 10
6545.560778
 20
6796.1304700000001
 11
7845.560778
 21
6796.1304700000001
  0
LINE
  8
_0-2_LAYER1
  6
CONTINUOUS
 62
    1
 10
6545.560778
 20
6793.1304700000001
 11
7845.560778
 21
6793.1304700000001
  0
LINE
  8
_0-2_LAYER1
  6
CONTINUOUS
 62
    1
 10
6445.560778
 20
6793.1304700000001
 11
7845.560778
 21
6793.1304700000001
  0
LINE
  8
_0-2_LAYER1
  6
CONTINUOUS
 62
    1
 10
8145.560778
 20
6793.1304700000001
 11
9845.5607779999991
 21
6793.1304700000001
  0
LINE
  8
_0-2_LAYER1
  6
CONTINUOUS
 62
    1
 10
10145.560777999999
 20
6793.1304700000001
 11
11845.560777999999
 21
6793.1304700000001
  0
LINE
  8
_0-2_LAYER1
  6
CONTINUOUS
 62
    1
 10
12145.560777999999
 20
6793.1304700000001
 11
13845.560777999999
 21
6793.1304700000001
  0
LINE
  8
_0-2_LAYER1
  6
CONTINUOUS
 62
    1
 10
14145.560777999999
 20
6793.1304700000001
 11
15445.560777999999
 21
6793.1304700000001
  0
LINE
  8
_0-2_LAYER1
  6
CONTINUOUS
 62
    1
 10
6445.560778
 20
6789.1304700000001
 11
7845.560778
 21
6789.1304700000001
  0
LINE
  8
_0-2_LAYER1
  6
CONTINUOUS
 62
    1
 10
8145.560778
 20
6789.1304700000001
 11
9845.5607779999991
 21
6789.1304700000001
  0
LINE
  8
_0-2_LAYER1
  6
CONTINUOUS
 62
    1
 10
10145.560777999999
 20
6789.1304700000001
 11
11845.560777999999
 21
6789.1304700000001
  0
LINE
  8
_0-2_LAYER1
  6
CONTINUOUS
 62
    1
 10
12145.560777999999
 20
6789.1304700000001
 11
13845.560777999999
 21
6789.1304700000001
  0
LINE
  8
_0-2_LAYER1
  6
CONTINUOUS
 62
    1
 10
14145.560777999999
 20
6789.1304700000001
 11
15445.560777999999
 21
6789.1304700000001
  0
LINE
  8
_0-2_LAYER1
  6
CONTINUOUS
 62
    1
 10
8145.560778
 20
6796.1304700000001
 11
9845.5607779999991
 21
6796.1304700000001
  0
LINE
  8
_0-2_LAYER1
  6
CONTINUOUS
 62
    1
 10
10145.560777999999
 20
6796.1304700000001
 11
11845.560777999999
 21
6796.1304700000001
  0
LINE
  8
_0-2_LAYER1
  6
CONTINUOUS
 62
    1
 10
12145.560777999999
 20
6796.1304700000001
 11
13845.560777999999
 21
6796.1304700000001
  0
LINE
  8
_0-2_LAYER1
  6
CONTINUOUS
 62
    1
 10
14145.560777999999
 20
6796.1304700000001
 11
15445.560777999999
 21
6796.1304700000001
  0
LINE
  8
_0-2_LAYER1
  6
CONTINUOUS
 62
    1
 10
15445.560777999999
 20
7638.1304700000001
 11
15445.560777999999
 21
6789.1304700000001
  0
LINE
  8
_0-2_LAYER1
  6
CONTINUOUS
 62
    1
 10
7845.560778
 20
6852.8037960000001
 11
8145.560778
 21
6852.8037960000001
  0
LINE
  8
_0-2_LAYER1
  6
CONTINUOUS
 62
    1
 10
9845.5607779999991
 20
6852.8037960000001
 11
10145.560777999999
 21
6852.8037960000001
  0
LINE
  8
_0-2_LAYER1
  6
CONTINUOUS
 62
    1
 10
11845.560777999999
 20
6852.8037960000001
 11
12145.560777999999
 21
6852.8037960000001
  0
LINE
  8
_0-2_LAYER1
  6
CONTINUOUS
 62
    1
 10
13845.560777999999
 20
6852.8037960000001
 11
14145.560777999999
 21
6852.8037960000001
  0
LINE
  8
_0-2_LAYER1
  6
CONTINUOUS
 62
    1
 10
7845.560778
 20
6845.8037960000001
 11
8145.560778
 21
6845.8037960000001
  0
LINE
  8
_0-2_LAYER1
  6
CONTINUOUS
 62
    1
 10
9845.5607779999991
 20
6845.8037960000001
 11
10145.560777999999
 21
6845.8037960000001
  0
LINE
  8
_0-2_LAYER1
  6
CONTINUOUS
 62
    1
 10
11845.560777999999
 20
6845.8037960000001
 11
12145.560777999999
 21
6845.8037960000001
  0
LINE
  8
_0-2_LAYER1
  6
CONTINUOUS
 62
    1
 10
13845.560777999999
 20
6845.8037960000001
 11
14145.560777999999
 21
6845.8037960000001
  0
LINE
  8
_0-2_LAYER1
  6
CONTINUOUS
 62
    1
 10
7845.560778
 20
6852.8037960000001
 11
7845.560778
 21
6789.1304700000001
  0
LINE
  8
_0-2_LAYER1
  6
CONTINUOUS
 62
    1
 10
8145.560778
 20
6852.8037960000001
 11
8145.560778
 21
6789.1304700000001
  0
LINE
  8
_0-2_LAYER1
  6
CONTINUOUS
 62
    1
 10
9845.5607779999991
 20
6852.8037960000001
 11
9845.5607779999991
 21
6789.1304700000001
  0
LINE
  8
_0-2_LAYER1
  6
CONTINUOUS
 62
    1
 10
10145.560777999999
 20
6852.8037960000001
 11
10145.560777999999
 21
6789.1304700000001
  0
LINE
  8
_0-2_LAYER1
  6
CONTINUOUS
 62
    1
 10
11845.560777999999
 20
6852.8037960000001
 11
11845.560777999999
 21
6789.1304700000001
  0
LINE
  8
_0-2_LAYER1
  6
CONTINUOUS
 62
    1
 10
12145.560777999999
 20
6852.8037960000001
 11
12145.560777999999
 21
6789.1304700000001
  0
LINE
  8
_0-2_LAYER1
  6
CONTINUOUS
 62
    1
 10
13845.560777999999
 20
6852.8037960000001
 11
13845.560777999999
 21
6789.1304700000001
  0
CIRCLE
  8
_0-2_LAYER1
  6
CONTINUOUS
 62
    1
 10
6995.560778
 20
6852.1304700000001
 40
20
  0
CIRCLE
  8
_0-2_LAYER1
  6
CONTINUOUS
 62
    1
 10
8995.5607779999991
 20
6852.1304700000001
 40
20
  0
CIRCLE
  8
_0-2_LAYER1
  6
CONTINUOUS
 62
    1
 10
10995.560777999999
 20
6852.1304700000001
 40
20
  0
CIRCLE
  8
_0-2_LAYER1
  6
CONTINUOUS
 62
    1
 10
12995.560777999999
 20
6852.1304700000001
 40
20
  0
CIRCLE
  8
_0-2_LAYER1
  6
CONTINUOUS
 62
    1
 10
13995.560777999999
 20
6891.3090069999998
 40
20
  0
CIRCLE
  8
_0-2_LAYER1
  6
CONTINUOUS
 62
    1
 10
7995.560778
 20
6891.3090069999998
 40
20
  0
CIRCLE
  8
_0-2_LAYER1
  6
CONTINUOUS
 62
    1
 10
9995.5607779999991
 20
6891.3090069999998
 40
20
  0
CIRCLE
  8
_0-2_LAYER1
  6
CONTINUOUS
 62
    1
 10
11995.560777999999
 20
6891.3090069999998
 40
20
  0
LINE
  8
_0-2_LAYER1
  6
CONTINUOUS
 62
    1
 10
6545.560778
 20
7638.1304700000001
 11
15445.560777999999
 21
7638.1304700000001
  0
CIRCLE
  8
_0-2_LAYER1
  6
CONTINUOUS
 62
    1
 10
14995.560777999999
 20
6852.1304700000001
 40
20
  0
CIRCLE
  8
_0-2_LAYER1
  6
CONTINUOUS
 62
    1
 10
6995.560778
 20
7503.1304700000001
 40
20
  0
CIRCLE
  8
_0-2_LAYER1
  6
CONTINUOUS
 62
    1
 10
8995.5607779999991
 20
7522.1304700000001
 40
20
  0
CIRCLE
  8
_0-2_LAYER1
  6
CONTINUOUS
 62
    1
 10
10995.560777999999
 20
7522.1304700000001
 40
20
  0
CIRCLE
  8
_0-2_LAYER1
  6
CONTINUOUS
 62
    1
 10
12995.560777999999
 20
7522.1304700000001
 40
20
  0
CIRCLE
  8
_0-2_LAYER1
  6
CONTINUOUS
 62
    1
 10
14995.560777999999
 20
7522.1304700000001
 40
20
  0
LINE
  8
_0-2_LAYER1
  6
CONTINUOUS
 62
    1
 10
14145.560777999999
 20
6852.8037960000001
 11
14145.560777999999
 21
6793.1304700000001
  0
LINE
  8
_0-2_LAYER1
  6
CENTER
 62
    1
 10
7995.560778
 20
9255.1304700000001
 11
7995.560778
 21
8844.1304700000001
  0
LINE
  8
_0-2_LAYER1
  6
CENTER
 62
    1
 10
9995.5607779999991
 20
8844.1304700000001
 11
9995.5607779999991
 21
9255.1304700000001
  0
LINE
  8
_0-2_LAYER1
  6
CENTER
 62
    1
 10
11995.560777999999
 20
9255.1304700000001
 11
11995.560777999999
 21
8844.1304700000001
  0
LINE
  8
_0-2_LAYER1
  6
CENTER
 62
    1
 10
13995.560777999999
 20
8844.1304700000001
 11
13995.560777999999
 21
9255.1304700000001
  0
TEXT
  8
_0-2_LAYER1
 62
    7
 10
8045.560778
 20
8286.1304700000001
 40
140
 41
0.8
 50
0
  1
釘穴5-φ4
  0
TEXT
  8
_0-2_LAYER1
 62
    7
 10
9436.0607779999991
 20
7154.1304700000001
 40
140
 41
0.8
 50
0
  1
釘穴5-φ4
  0
LINE
  8
_0-2_LAYER1
  6
CONTINUOUS
 62
    1
 10
7036.5607780000009
 20
7635.1304700000001
 11
6981.5607780000009
 21
7492.1304700000001
  0
LINE
  8
_0-2_LAYER1
  6
CONTINUOUS
 62
    1
 10
6981.5607780000009
 20
7492.1304700000001
 11
8045.560778
 21
8286.1304700000001
  0
LINE
  8
_0-2_LAYER1
  6
CONTINUOUS
 62
    1
 10
8045.560778
 20
8286.1304700000001
 11
8518.0607779999991
 21
8286.1304700000001
  0
LINE
  8
_0-2_LAYER1
  6
CONTINUOUS
 62
    1
 10
10863.560777999999
 20
6820.1304700000001
 11
11011.560777999999
 21
6844.1304700000001
  0
LINE
  8
_0-2_LAYER1
  6
CONTINUOUS
 62
    1
 10
11011.560777999999
 20
6844.1304700000001
 11
9908.5607779999991
 21
7154.1304700000001
  0
LINE
  8
_0-2_LAYER1
  6
CONTINUOUS
 62
    1
 10
9908.5607779999991
 20
7154.1304700000001
 11
9436.0607779999991
 21
7154.1304700000001
  0
TEXT
  8
_0-2_LAYER1
 62
    7
 10
11502.560777999999
 20
8322.1304700000001
 40
140
 41
0.8
 50
0
  1
通気開口部10-50x20
  0
LINE
  8
_0-2_LAYER1
  6
CONTINUOUS
 62
    1
 10
10773.560777999999
 20
7115.1304700000001
 11
10765.560777999999
 21
6965.1304700000001
  0
LINE
  8
_0-2_LAYER1
  6
CONTINUOUS
 62
    1
 10
10765.560777999999
 20
6965.1304700000001
 11
11502.560777999999
 21
8322.1304700000001
  0
LINE
  8
_0-2_LAYER1
  6
CONTINUOUS
 62
    1
 10
11502.560777999999
 20
8322.1304700000001
 11
12447.560777999999
 21
8322.1304700000001
  0
LINE
  8
_0-2_LAYER1
  6
DASHED
 62
    1
 10
15345.560777999999
 20
7414.1304700000001
 11
15345.560777999999
 21
6789.1304700000001
  0
LINE
  8
_0-2_LAYER1
  6
CONTINUOUS
 62
    1
 10
10312.560777999999
 20
7429.1304700000001
 11
10265.560777999999
 21
7286.1304700000001
  0
LINE
  8
_0-2_LAYER1
  6
CONTINUOUS
 62
    1
 10
10265.560777999999
 20
7286.1304700000001
 11
11502.560777999999
 21
8322.1304700000001
  0
LINE
  8
_0-2_LAYER1
  6
CONTINUOUS
 62
    1
 10
6484.560778
 20
2433.1304700000001
 11
15484.560777999999
 21
2433.1304700000001
  0
LINE
  8
_0-2_LAYER1
  6
CONTINUOUS
 62
    1
 10
6484.560778
 20
2433.1304700000001
 11
6484.560778
 21
2233.1304700000001
  0
LINE
  8
_0-2_LAYER1
  6
CONTINUOUS
 62
    1
 10
6484.560778
 20
2233.1304700000001
 11
15484.560777999999
 21
2233.1304700000001
  0
LINE
  8
_0-2_LAYER1
  6
CONTINUOUS
 62
    1
 10
15484.560777999999
 20
2233.1304700000001
 11
15484.560777999999
 21
2433.1304700000001
  0
LINE
  8
_0-2_LAYER1
  6
CONTINUOUS
 62
    1
 10
6734.560778
 20
2433.1304700000001
 11
6734.560778
 21
2233.1304700000001
  0
LINE
  8
_0-2_LAYER1
  6
CONTINUOUS
 62
    1
 10
7234.560778
 20
2233.1304700000001
 11
7234.560778
 21
2433.1304700000001
  0
LINE
  8
_0-2_LAYER1
  6
CONTINUOUS
 62
    1
 10
7534.560778
 20
2433.1304700000001
 11
7534.560778
 21
2233.1304700000001
  0
LINE
  8
_0-2_LAYER1
  6
CONTINUOUS
 62
    1
 10
8034.560778
 20
2233.1304700000001
 11
8034.560778
 21
2433.1304700000001
  0
LINE
  8
_0-2_LAYER1
  6
CONTINUOUS
 62
    1
 10
8334.5607779999991
 20
2433.1304700000001
 11
8334.5607779999991
 21
2233.1304700000001
  0
LINE
  8
_0-2_LAYER1
  6
CONTINUOUS
 62
    1
 10
8834.5607779999991
 20
2233.1304700000001
 11
8834.5607779999991
 21
2433.1304700000001
  0
LINE
  8
_0-2_LAYER1
  6
CONTINUOUS
 62
    1
 10
9134.5607779999991
 20
2433.1304700000001
 11
9134.5607779999991
 21
2233.1304700000001
  0
LINE
  8
_0-2_LAYER1
  6
CONTINUOUS
 62
    1
 10
9634.5607779999991
 20
2233.1304700000001
 11
9634.5607779999991
 21
2433.1304700000001
  0
LINE
  8
_0-2_LAYER1
  6
CONTINUOUS
 62
    1
 10
9934.5607779999991
 20
2433.1304700000001
 11
9934.5607779999991
 21
2233.1304700000001
  0
LINE
  8
_0-2_LAYER1
  6
CONTINUOUS
 62
    1
 10
10434.560777999999
 20
2233.1304700000001
 11
10434.560777999999
 21
2433.1304700000001
  0
LINE
  8
_0-2_LAYER1
  6
CONTINUOUS
 62
    1
 10
10734.560777999999
 20
2433.1304700000001
 11
10734.560777999999
 21
2233.1304700000001
  0
LINE
  8
_0-2_LAYER1
  6
CONTINUOUS
 62
    1
 10
11234.560777999999
 20
2233.1304700000001
 11
11234.560777999999
 21
2433.1304700000001
  0
LINE
  8
_0-2_LAYER1
  6
CONTINUOUS
 62
    1
 10
11534.560777999999
 20
2433.1304700000001
 11
11534.560777999999
 21
2233.1304700000001
  0
LINE
  8
_0-2_LAYER1
  6
CONTINUOUS
 62
    1
 10
12034.560777999999
 20
2233.1304700000001
 11
12034.560777999999
 21
2433.1304700000001
  0
LINE
  8
_0-2_LAYER1
  6
CONTINUOUS
 62
    1
 10
12334.560777999999
 20
2433.1304700000001
 11
12334.560777999999
 21
2233.1304700000001
  0
LINE
  8
_0-2_LAYER1
  6
CONTINUOUS
 62
    1
 10
12834.560777999999
 20
2233.1304700000001
 11
12834.560777999999
 21
2433.1304700000001
  0
LINE
  8
_0-2_LAYER1
  6
CONTINUOUS
 62
    1
 10
13134.560777999999
 20
2433.1304700000001
 11
13134.560777999999
 21
2233.1304700000001
  0
LINE
  8
_0-2_LAYER1
  6
CONTINUOUS
 62
    1
 10
13634.560777999999
 20
2233.1304700000001
 11
13634.560777999999
 21
2433.1304700000001
  0
LINE
  8
_0-2_LAYER1
  6
CONTINUOUS
 62
    1
 10
13934.560777999999
 20
2433.1304700000001
 11
13934.560777999999
 21
2233.1304700000001
  0
LINE
  8
_0-2_LAYER1
  6
CONTINUOUS
 62
    1
 10
14434.560777999999
 20
2233.1304700000001
 11
14434.560777999999
 21
2433.1304700000001
  0
LINE
  8
_0-2_LAYER1
  6
CONTINUOUS
 62
    1
 10
14734.560777999999
 20
2433.1304700000001
 11
14734.560777999999
 21
2233.1304700000001
  0
LINE
  8
_0-2_LAYER1
  6
CONTINUOUS
 62
    1
 10
15234.560777999999
 20
2233.1304700000001
 11
15234.560777999999
 21
2433.1304700000001
  0
LINE
  8
_0-2_LAYER1
  6
CONTINUOUS
 62
    1
 10
6734.560778
 20
2353.1304700000001
 11
7234.560778
 21
2353.1304700000001
  0
LINE
  8
_0-2_LAYER1
  6
CONTINUOUS
 62
    1
 10
7534.560778
 20
2353.1304700000001
 11
8034.560778
 21
2353.1304700000001
  0
LINE
  8
_0-2_LAYER1
  6
CONTINUOUS
 62
    1
 10
8334.5607779999991
 20
2353.1304700000001
 11
8834.5607779999991
 21
2353.1304700000001
  0
LINE
  8
_0-2_LAYER1
  6
CONTINUOUS
 62
    1
 10
9134.5607779999991
 20
2353.1304700000001
 11
9634.5607779999991
 21
2353.1304700000001
  0
LINE
  8
_0-2_LAYER1
  6
CONTINUOUS
 62
    1
 10
9934.5607779999991
 20
2353.1304700000001
 11
10434.560777999999
 21
2353.1304700000001
  0
LINE
  8
_0-2_LAYER1
  6
CONTINUOUS
 62
    1
 10
10734.560777999999
 20
2353.1304700000001
 11
11234.560777999999
 21
2353.1304700000001
  0
LINE
  8
_0-2_LAYER1
  6
CONTINUOUS
 62
    1
 10
11534.560777999999
 20
2353.1304700000001
 11
12034.560777999999
 21
2353.1304700000001
  0
LINE
  8
_0-2_LAYER1
  6
CONTINUOUS
 62
    1
 10
12334.560777999999
 20
2353.1304700000001
 11
12834.560777999999
 21
2353.1304700000001
  0
LINE
  8
_0-2_LAYER1
  6
CONTINUOUS
 62
    1
 10
13134.560777999999
 20
2353.1304700000001
 11
13634.560777999999
 21
2353.1304700000001
  0
LINE
  8
_0-2_LAYER1
  6
CONTINUOUS
 62
    1
 10
13934.560777999999
 20
2353.1304700000001
 11
14434.560777999999
 21
2353.1304700000001
  0
LINE
  8
_0-2_LAYER1
  6
CONTINUOUS
 62
    1
 10
14734.560777999999
 20
2353.1304700000001
 11
15234.560777999999
 21
2353.1304700000001
  0
LINE
  8
_0-2_LAYER1
  6
CONTINUOUS
 62
    1
 10
15484.560777999999
 20
1979.1304700000001
 11
15484.560777999999
 21
1351.1304700000001
  0
LINE
  8
_0-2_LAYER1
  6
CONTINUOUS
 62
    1
 10
15484.560777999999
 20
1351.1304700000001
 11
6484.560778
 21
1351.1304700000001
  0
LINE
  8
_0-2_LAYER1
  6
CONTINUOUS
 62
    1
 10
6484.560778
 20
1979.1304700000001
 11
6484.560778
 21
1351.1304700000001
  0
LINE
  8
_0-2_LAYER1
  6
CONTINUOUS
 62
    1
 10
15484.560777999999
 20
1979.1304700000001
 11
6484.560778
 21
1979.1304700000001
  0
LINE
  8
_0-2_LAYER1
  6
PHANTOM
 62
    1
 10
6275.560778
 20
4815.1304700000001
 11
6513.560778
 21
4815.1304700000001
  0
LINE
  8
_0-2_LAYER1
  6
CONTINUOUS
 62
    1
 10
10725.560777999999
 20
5640.1304700000001
 11
10725.560777999999
 21
4480.1304700000001
  0
LINE
  8
_0-2_LAYER1
  6
CONTINUOUS
 62
    1
 10
6275.560778
 20
5640.1304700000001
 11
6275.560778
 21
4480.1304700000001
  0
LINE
  8
_0-2_LAYER1
  6
PHANTOM
 62
    1
 10
6295.560778
 20
5150.1304700000001
 11
6340.560778
 21
5150.1304700000001
  0
LINE
  8
_0-2_LAYER1
  6
PHANTOM
 62
    1
 10
6340.560778
 20
5150.1304700000001
 11
6354.560778
 21
5150.1304700000001
  0
LINE
  8
_0-2_LAYER1
  6
PHANTOM
 62
    1
 10
6354.560778
 20
5150.1304700000001
 11
6670.560778
 21
5150.1304700000001
  0
LINE
  8
_0-2_LAYER1
  6
PHANTOM
 62
    1
 10
6670.560778
 20
5150.1304700000001
 11
6684.560778
 21
5150.1304700000001
  0
LINE
  8
_0-2_LAYER1
  6
PHANTOM
 62
    1
 10
6684.560778
 20
5150.1304700000001
 11
10705.560777999999
 21
5150.1304700000001
  0
LINE
  8
_0-2_LAYER1
  6
PHANTOM
 62
    1
 10
6513.560778
 20
4815.1304700000001
 11
6837.5607779999991
 21
4815.1304700000001
  0
LINE
  8
_0-2_LAYER1
  6
PHANTOM
 62
    1
 10
6837.5607779999991
 20
4815.1304700000001
 11
10725.560777999999
 21
4815.1304700000001
  0
LINE
  8
_0-2_LAYER1
  6
CONTINUOUS
 62
    1
 10
6275.560778
 20
4480.1304700000001
 11
10725.560777999999
 21
4480.1304700000001
  0
LINE
  8
_0-2_LAYER1
  6
CENTER
 62
    1
 10
6510.560778
 20
5150.1304700000001
 11
6683.560778
 21
4977.1304700000001
  0
LINE
  8
_0-2_LAYER1
  6
CENTER
 62
    1
 10
6683.560778
 20
4977.1304700000001
 11
6845.560778
 21
4815.1304700000001
  0
LINE
  8
_0-2_LAYER1
  6
CENTER
 62
    1
 10
6840.560778
 20
5150.1304700000001
 11
7175.560778
 21
4815.1304700000001
  0
LINE
  8
_0-2_LAYER1
  6
CENTER
 62
    1
 10
7170.560778
 20
5150.1304700000001
 11
7505.560778
 21
4815.1304700000001
  0
LINE
  8
_0-2_LAYER1
  6
CENTER
 62
    1
 10
7500.560778
 20
5150.1304700000001
 11
7835.560778
 21
4815.1304700000001
  0
LINE
  8
_0-2_LAYER1
  6
CENTER
 62
    1
 10
7830.560778
 20
5150.1304700000001
 11
8165.560778
 21
4815.1304700000001
  0
LINE
  8
_0-2_LAYER1
  6
CENTER
 62
    1
 10
8160.560778
 20
5150.1304700000001
 11
8495.5607779999991
 21
4815.1304700000001
  0
LINE
  8
_0-2_LAYER1
  6
CENTER
 62
    1
 10
8490.5607779999991
 20
5150.1304700000001
 11
8825.5607779999991
 21
4815.1304700000001
  0
LINE
  8
_0-2_LAYER1
  6
CENTER
 62
    1
 10
8820.5607779999991
 20
5150.1304700000001
 11
9155.5607779999991
 21
4815.1304700000001
  0
LINE
  8
_0-2_LAYER1
  6
CENTER
 62
    1
 10
9150.5607779999991
 20
5150.1304700000001
 11
9485.5607779999991
 21
4815.1304700000001
  0
LINE
  8
_0-2_LAYER1
  6
CENTER
 62
    1
 10
9480.5607779999991
 20
5150.1304700000001
 11
9815.5607779999991
 21
4815.1304700000001
  0
LINE
  8
_0-2_LAYER1
  6
CENTER
 62
    1
 10
9810.5607779999991
 20
5150.1304700000001
 11
10145.560777999999
 21
4815.1304700000001
  0
LINE
  8
_0-2_LAYER1
  6
CENTER
 62
    1
 10
10140.560777999999
 20
5150.1304700000001
 11
10475.560777999999
 21
4815.1304700000001
  0
LINE
  8
_0-2_LAYER1
  6
CENTER
 62
    1
 10
10470.560777999999
 20
5150.1304700000001
 11
10705.560777999999
 21
4915.1304700000001
  0
LINE
  8
_0-2_LAYER1
  6
CENTER
 62
    1
 10
6295.560778
 20
5035.1304700000001
 11
6515.560778
 21
4815.1304700000001
  0
LINE
  8
_0-2_LAYER1
  6
CENTER
 62
    1
 10
6675.560778
 20
4815.1304700000001
 11
6560.560778
 21
4700.1304700000001
  0
LINE
  8
_0-2_LAYER1
  6
CENTER
 62
    1
 10
6560.560778
 20
4700.1304700000001
 11
6345.560778
 21
4485.1304700000001
  0
LINE
  8
_0-2_LAYER1
  6
CENTER
 62
    1
 10
7005.560778
 20
4815.1304700000001
 11
6670.560778
 21
4480.1304700000001
  0
LINE
  8
_0-2_LAYER1
  6
CENTER
 62
    1
 10
7335.560778
 20
4815.1304700000001
 11
7000.560778
 21
4480.1304700000001
  0
LINE
  8
_0-2_LAYER1
  6
CENTER
 62
    1
 10
7665.560778
 20
4815.1304700000001
 11
7330.560778
 21
4480.1304700000001
  0
LINE
  8
_0-2_LAYER1
  6
CENTER
 62
    1
 10
7995.560778
 20
4815.1304700000001
 11
7660.560778
 21
4480.1304700000001
  0
LINE
  8
_0-2_LAYER1
  6
CENTER
 62
    1
 10
8325.5607779999991
 20
4815.1304700000001
 11
7990.560778
 21
4480.1304700000001
  0
LINE
  8
_0-2_LAYER1
  6
CENTER
 62
    1
 10
8655.5607779999991
 20
4815.1304700000001
 11
8320.5607779999991
 21
4480.1304700000001
  0
LINE
  8
_0-2_LAYER1
  6
CENTER
 62
    1
 10
8985.5607779999991
 20
4815.1304700000001
 11
8650.5607779999991
 21
4480.1304700000001
  0
LINE
  8
_0-2_LAYER1
  6
CENTER
 62
    1
 10
9315.5607779999991
 20
4815.1304700000001
 11
8980.5607779999991
 21
4480.1304700000001
  0
LINE
  8
_0-2_LAYER1
  6
CENTER
 62
    1
 10
9645.5607779999991
 20
4815.1304700000001
 11
9310.5607779999991
 21
4480.1304700000001
  0
LINE
  8
_0-2_LAYER1
  6
CENTER
 62
    1
 10
9975.5607779999991
 20
4815.1304700000001
 11
9640.5607779999991
 21
4480.1304700000001
  0
LINE
  8
_0-2_LAYER1
  6
CENTER
 62
    1
 10
10305.560777999999
 20
4815.1304700000001
 11
9970.5607779999991
 21
4480.1304700000001
  0
LINE
  8
_0-2_LAYER1
  6
CENTER
 62
    1
 10
10635.560777999999
 20
4815.1304700000001
 11
10300.560777999999
 21
4480.1304700000001
  0
LINE
  8
_0-2_LAYER1
  6
CENTER
 62
    1
 10
10705.560777999999
 20
4555.1304700000001
 11
10630.560777999999
 21
4480.1304700000001
  0
LINE
  8
_0-2_LAYER1
  6
CENTER
 62
    1
 10
6470.560778
 20
5280.1304700000001
 11
6340.560778
 21
5150.1304700000001
  0
LINE
  8
_0-2_LAYER1
  6
CENTER
 62
    1
 10
7005.560778
 20
5485.1304700000001
 11
6800.560778
 21
5280.1304700000001
  0
LINE
  8
_0-2_LAYER1
  6
CENTER
 62
    1
 10
6800.560778
 20
5280.1304700000001
 11
6670.560778
 21
5150.1304700000001
  0
LINE
  8
_0-2_LAYER1
  6
CENTER
 62
    1
 10
7335.560778
 20
5485.1304700000001
 11
7000.560778
 21
5150.1304700000001
  0
LINE
  8
_0-2_LAYER1
  6
CENTER
 62
    1
 10
7665.560778
 20
5485.1304700000001
 11
7330.560778
 21
5150.1304700000001
  0
LINE
  8
_0-2_LAYER1
  6
CENTER
 62
    1
 10
7995.560778
 20
5485.1304700000001
 11
7660.560778
 21
5150.1304700000001
  0
LINE
  8
_0-2_LAYER1
  6
CENTER
 62
    1
 10
8325.5607779999991
 20
5485.1304700000001
 11
7990.560778
 21
5150.1304700000001
  0
LINE
  8
_0-2_LAYER1
  6
CENTER
 62
    1
 10
8655.5607779999991
 20
5485.1304700000001
 11
8320.5607779999991
 21
5150.1304700000001
  0
LINE
  8
_0-2_LAYER1
  6
CENTER
 62
    1
 10
8985.5607779999991
 20
5485.1304700000001
 11
8650.5607779999991
 21
5150.1304700000001
  0
LINE
  8
_0-2_LAYER1
  6
CENTER
 62
    1
 10
9315.5607779999991
 20
5485.1304700000001
 11
8980.5607779999991
 21
5150.1304700000001
  0
LINE
  8
_0-2_LAYER1
  6
CENTER
 62
    1
 10
9645.5607779999991
 20
5485.1304700000001
 11
9310.5607779999991
 21
5150.1304700000001
  0
LINE
  8
_0-2_LAYER1
  6
CENTER
 62
    1
 10
9975.5607779999991
 20
5485.1304700000001
 11
9640.5607779999991
 21
5150.1304700000001
  0
LINE
  8
_0-2_LAYER1
  6
CENTER
 62
    1
 10
10305.560777999999
 20
5485.1304700000001
 11
9970.5607779999991
 21
5150.1304700000001
  0
LINE
  8
_0-2_LAYER1
  6
CENTER
 62
    1
 10
10635.560777999999
 20
5485.1304700000001
 11
10300.560777999999
 21
5150.1304700000001
  0
LINE
  8
_0-2_LAYER1
  6
DASHED
 62
    1
 10
6359.560778
 20
4485.1304700000001
 11
6568.560778
 21
4694.1304700000001
  0
LINE
  8
_0-2_LAYER1
  6
DASHED
 62
    1
 10
6568.560778
 20
4694.1304700000001
 11
6675.560778
 21
4801.1304700000001
  0
LINE
  8
_0-2_LAYER1
  6
DASHED
 62
    1
 10
6345.560778
 20
4499.1304700000001
 11
6554.560778
 21
4708.1304700000001
  0
LINE
  8
_0-2_LAYER1
  6
DASHED
 62
    1
 10
6554.560778
 20
4708.1304700000001
 11
6661.5607780000009
 21
4815.1304700000001
  0
CIRCLE
  8
_0-2_LAYER1
  6
CONTINUOUS
 62
    1
 10
6475.560778
 20
4615.1304700000001
 40
10
  0
LINE
  8
_0-2_LAYER1
  6
DASHED
 62
    1
 10
6295.560778
 20
5280.1304700000001
 11
6295.560778
 21
5060.1304700000001
  0
LINE
  8
_0-2_LAYER1
  6
DASHED
 62
    1
 10
6295.560778
 20
5060.1304700000001
 11
6295.560778
 21
4480.1304700000001
  0
LINE
  8
_0-2_LAYER1
  6
CONTINUOUS
 62
    1
 10
6275.560778
 20
5280.1304700000001
 11
6456.5607780000009
 21
5280.1304700000001
  0
LINE
  8
_0-2_LAYER1
  6
CONTINUOUS
 62
    1
 10
6456.5607780000009
 20
5280.1304700000001
 11
6470.560778
 21
5280.1304700000001
  0
LINE
  8
_0-2_LAYER1
  6
CONTINUOUS
 62
    1
 10
6470.560778
 20
5280.1304700000001
 11
6484.560778
 21
5280.1304700000001
  0
LINE
  8
_0-2_LAYER1
  6
CONTINUOUS
 62
    1
 10
6484.560778
 20
5280.1304700000001
 11
6607.5607779999991
 21
5280.1304700000001
  0
LINE
  8
_0-2_LAYER1
  6
CONTINUOUS
 62
    1
 10
6607.5607779999991
 20
5280.1304700000001
 11
6786.5607780000009
 21
5280.1304700000001
  0
LINE
  8
_0-2_LAYER1
  6
CONTINUOUS
 62
    1
 10
6786.5607780000009
 20
5280.1304700000001
 11
6800.560778
 21
5280.1304700000001
  0
LINE
  8
_0-2_LAYER1
  6
CONTINUOUS
 62
    1
 10
6800.560778
 20
5280.1304700000001
 11
6814.560778
 21
5280.1304700000001
  0
LINE
  8
_0-2_LAYER1
  6
CONTINUOUS
 62
    1
 10
6814.560778
 20
5280.1304700000001
 11
10725.560777999999
 21
5280.1304700000001
  0
CIRCLE
  8
_0-2_LAYER1
  6
CONTINUOUS
 62
    1
 10
6565.560778
 20
5095.1304700000001
 40
10
  0
LINE
  8
_0-2_LAYER1
  6
DASHED
 62
    1
 10
10705.560777999999
 20
5280.1304700000001
 11
10705.560777999999
 21
4480.1304700000001
  0
CIRCLE
  8
_0-2_LAYER1
  6
CONTINUOUS
 62
    1
 10
8545.5607779999991
 20
5095.1304700000001
 40
10
  0
CIRCLE
  8
_0-2_LAYER1
  6
CONTINUOUS
 62
    1
 10
8455.5607779999991
 20
4615.1304700000001
 40
10
  0
CIRCLE
  8
_0-2_LAYER1
  6
CONTINUOUS
 62
    1
 10
10525.560777999999
 20
5095.1304700000001
 40
10
  0
CIRCLE
  8
_0-2_LAYER1
  6
CONTINUOUS
 62
    1
 10
10435.560777999999
 20
4615.1304700000001
 40
10
  0
ARC
  8
_0-2_LAYER1
  6
DASHED
 62
    1
 10
6352.5607779999991
 20
4492.1304700000001
 40
10
 50
225
 51
315
  0
ARC
  8
_0-2_LAYER1
  6
DASHED
 62
    1
 10
6352.5607779999991
 20
4492.1304700000001
 40
10
 50
135
 51
225
  0
ARC
  8
_0-2_LAYER1
  6
DASHED
 62
    1
 10
6668.560778
 20
4808.1304700000001
 40
10
 50
45
 51
135
  0
ARC
  8
_0-2_LAYER1
  6
DASHED
 62
    1
 10
6668.560778
 20
4808.1304700000001
 40
10
 50
315
 51
45
  0
LINE
  8
_0-2_LAYER1
  6
DASHED
 62
    1
 10
6515.560778
 20
4829.1304700000001
 11
6399.560778
 21
4945.1304700000001
  0
LINE
  8
_0-2_LAYER1
  6
DASHED
 62
    1
 10
6399.560778
 20
4945.1304700000001
 11
6295.560778
 21
5049.1304700000001
  0
LINE
  8
_0-2_LAYER1
  6
DASHED
 62
    1
 10
6501.5607780000009
 20
4815.1304700000001
 11
6295.560778
 21
5021.1304700000001
  0
ARC
  8
_0-2_LAYER1
  6
DASHED
 62
    1
 10
6508.560778
 20
4822.1304700000001
 40
10
 50
299.05000000000001
 51
315
  0
ARC
  8
_0-2_LAYER1
  6
DASHED
 62
    1
 10
6508.560778
 20
4822.1304700000001
 40
10
 50
225
 51
299.05000000000001
  0
ARC
  8
_0-2_LAYER1
  6
DASHED
 62
    1
 10
6508.560778
 20
4822.1304700000001
 40
10
 50
315
 51
45
  0
LINE
  8
_0-2_LAYER1
  6
DASHED
 62
    1
 10
6845.560778
 20
4829.1304700000001
 11
6699.560778
 21
4975.1304700000001
  0
LINE
  8
_0-2_LAYER1
  6
DASHED
 62
    1
 10
6699.560778
 20
4975.1304700000001
 11
6524.560778
 21
5150.1304700000001
  0
LINE
  8
_0-2_LAYER1
  6
DASHED
 62
    1
 10
6831.5607780000009
 20
4815.1304700000001
 11
6669.560778
 21
4977.1304700000001
  0
LINE
  8
_0-2_LAYER1
  6
DASHED
 62
    1
 10
6669.560778
 20
4977.1304700000001
 11
6510.560778
 21
5136.1304700000001
  0
ARC
  8
_0-2_LAYER1
  6
DASHED
 62
    1
 10
6838.560778
 20
4822.1304700000001
 40
10
 50
264.29000000000002
 51
315
  0
ARC
  8
_0-2_LAYER1
  6
DASHED
 62
    1
 10
6838.560778
 20
4822.1304700000001
 40
10
 50
225
 51
264.29000000000002
  0
ARC
  8
_0-2_LAYER1
  6
DASHED
 62
    1
 10
6838.560778
 20
4822.1304700000001
 40
10
 50
315
 51
45
  0
ARC
  8
_0-2_LAYER1
  6
DASHED
 62
    1
 10
6517.5607779999991
 20
5143.1304700000001
 40
10
 50
135
 51
225
  0
ARC
  8
_0-2_LAYER1
  6
DASHED
 62
    1
 10
6517.5607779999991
 20
5143.1304700000001
 40
10
 50
45
 51
135
  0
LINE
  8
_0-2_LAYER1
  6
DASHED
 62
    1
 10
6354.560778
 20
5150.1304700000001
 11
6484.560778
 21
5280.1304700000001
  0
LINE
  8
_0-2_LAYER1
  6
CONTINUOUS
 62
    1
 10
6484.560778
 20
5280.1304700000001
 11
6675.560778
 21
5471.1304700000001
  0
LINE
  8
_0-2_LAYER1
  6
DASHED
 62
    1
 10
6340.560778
 20
5164.1304700000001
 11
6456.5607780000009
 21
5280.1304700000001
  0
LINE
  8
_0-2_LAYER1
  6
CONTINUOUS
 62
    1
 10
6456.5607780000009
 20
5280.1304700000001
 11
6661.5607780000009
 21
5485.1304700000001
  0
LINE
  8
_0-2_LAYER1
  6
CONTINUOUS
 62
    1
 10
7005.560778
 20
5471.1304700000001
 11
6814.560778
 21
5280.1304700000001
  0
LINE
  8
_0-2_LAYER1
  6
DASHED
 62
    1
 10
6814.560778
 20
5280.1304700000001
 11
6684.560778
 21
5150.1304700000001
  0
LINE
  8
_0-2_LAYER1
  6
CONTINUOUS
 62
    1
 10
6991.5607780000009
 20
5485.1304700000001
 11
6786.5607780000009
 21
5280.1304700000001
  0
LINE
  8
_0-2_LAYER1
  6
DASHED
 62
    1
 10
6786.5607780000009
 20
5280.1304700000001
 11
6670.560778
 21
5164.1304700000001
  0
ARC
  8
_0-2_LAYER1
  6
DASHED
 62
    1
 10
6347.5607779999991
 20
5157.1304700000001
 40
10
 50
275.71000000000004
 51
315
  0
ARC
  8
_0-2_LAYER1
  6
DASHED
 62
    1
 10
6347.5607779999991
 20
5157.1304700000001
 40
10
 50
225
 51
275.70999999999998
  0
ARC
  8
_0-2_LAYER1
  6
DASHED
 62
    1
 10
6347.5607779999991
 20
5157.1304700000001
 40
10
 50
135
 51
225
  0
ARC
  8
_0-2_LAYER1
  6
CONTINUOUS
 62
    1
 10
6668.560778
 20
5478.1304700000001
 40
10
 50
45
 51
135
  0
ARC
  8
_0-2_LAYER1
  6
CONTINUOUS
 62
    1
 10
6668.560778
 20
5478.1304700000001
 40
10
 50
315
 51
45
  0
ARC
  8
_0-2_LAYER1
  6
CONTINUOUS
 62
    1
 10
6998.560778
 20
5478.1304700000001
 40
10
 50
45
 51
135
  0
ARC
  8
_0-2_LAYER1
  6
CONTINUOUS
 62
    1
 10
6998.560778
 20
5478.1304700000001
 40
10
 50
315
 51
45
  0
ARC
  8
_0-2_LAYER1
  6
DASHED
 62
    1
 10
6677.5607779999991
 20
5157.1304700000001
 40
10
 50
135
 51
225
  0
ARC
  8
_0-2_LAYER1
  6
DASHED
 62
    1
 10
6677.5607779999991
 20
5157.1304700000001
 40
10
 50
240.94999999999999
 51
315
  0
ARC
  8
_0-2_LAYER1
  6
DASHED
 62
    1
 10
6677.5607779999991
 20
5157.1304700000001
 40
10
 50
225
 51
240.94999999999999
  0
LINE
  8
_0-2_LAYER1
  6
PHANTOM
 62
    1
 10
6275.560778
 20
5485.1304700000001
 11
6390.560778
 21
5485.1304700000001
  0
LINE
  8
_0-2_LAYER1
  6
PHANTOM
 62
    1
 10
6390.560778
 20
5485.1304700000001
 11
6960.560778
 21
5485.1304700000001
  0
LINE
  8
_0-2_LAYER1
  6
PHANTOM
 62
    1
 10
6960.560778
 20
5485.1304700000001
 11
10725.560777999999
 21
5485.1304700000001
  0
LINE
  8
_0-2_LAYER1
  6
CONTINUOUS
 62
    1
 10
6275.560778
 20
5640.1304700000001
 11
6436.5607780000009
 21
5640.1304700000001
  0
LINE
  8
_0-2_LAYER1
  6
CONTINUOUS
 62
    1
 10
6436.5607780000009
 20
5640.1304700000001
 11
6914.560778
 21
5640.1304700000001
  0
LINE
  8
_0-2_LAYER1
  6
CONTINUOUS
 62
    1
 10
6914.560778
 20
5640.1304700000001
 11
10725.560777999999
 21
5640.1304700000001
  0
LINE
  8
_0-2_LAYER1
  6
CENTER
 62
    1
 10
10725.560777999999
 20
5510.1304700000001
 11
6959.560778
 21
5510.1304700000001
  0
LINE
  8
_0-2_LAYER1
  6
CENTER
 62
    1
 10
6959.560778
 20
5510.1304700000001
 11
6391.5607780000009
 21
5510.1304700000001
  0
LINE
  8
_0-2_LAYER1
  6
CENTER
 62
    1
 10
6391.5607780000009
 20
5510.1304700000001
 11
6275.560778
 21
5510.1304700000001
  0
LINE
  8
_0-2_LAYER1
  6
DASHED
 62
    1
 10
6275.560778
 20
5520.1304700000001
 11
6392.5607779999991
 21
5520.1304700000001
  0
LINE
  8
_0-2_LAYER1
  6
DASHED
 62
    1
 10
6392.5607779999991
 20
5520.1304700000001
 11
6958.560778
 21
5520.1304700000001
  0
LINE
  8
_0-2_LAYER1
  6
DASHED
 62
    1
 10
6958.560778
 20
5520.1304700000001
 11
10725.560777999999
 21
5520.1304700000001
  0
LINE
  8
_0-2_LAYER1
  6
DASHED
 62
    1
 10
6275.560778
 20
5500.1304700000001
 11
6390.560778
 21
5500.1304700000001
  0
LINE
  8
_0-2_LAYER1
  6
DASHED
 62
    1
 10
6390.560778
 20
5500.1304700000001
 11
6960.560778
 21
5500.1304700000001
  0
LINE
  8
_0-2_LAYER1
  6
DASHED
 62
    1
 10
6960.560778
 20
5500.1304700000001
 11
10725.560777999999
 21
5500.1304700000001
  0
LINE
  8
_0-2_LAYER1
  6
CENTER
 62
    1
 10
6675.560778
 20
5485.1304700000001
 11
6470.560778
 21
5280.1304700000001
  0
TEXT
  8
_0-2_LAYER1
 62
    7
 10
6032.5607779999991
 20
4878.1304700000001
 40
140
 41
0.8
 50
0
  1
45°
  0
ARC
  8
_0-2_LAYER1
  6
CONTINUOUS
 62
    1
 10
6675.560778
 20
5485.1304700000001
 40
285
 50
226
 51
226.99000000000001
  0
ARC
  8
_0-2_LAYER1
  6
CONTINUOUS
 62
    1
 10
6675.560778
 20
5485.1304700000001
 40
285
 50
225
 51
226
  0
TEXT
  8
_0-2_LAYER1
 62
    7
 10
7161.7654920000004
 20
4628.5989879999997
 40
140
 41
0.8
 50
69.999999999999972
  1
R
  0
LINE
  8
_0-2_LAYER1
  6
CONTINUOUS
 62
    1
 10
7215.560778
 20
4855.1304700000001
 11
7135.560778
 21
4775.1304700000001
  0
LINE
  8
_0-2_LAYER1
  6
CONTINUOUS
 62
    1
 10
8550.5607779999991
 20
5575.1304700000001
 11
8450.5607779999991
 21
5575.1304700000001
  0
LINE
  8
_0-2_LAYER1
  6
CONTINUOUS
 62
    1
 10
6625.560778
 20
5575.1304700000001
 11
6725.560778
 21
5575.1304700000001
  0
LINE
  8
_0-2_LAYER1
  6
CONTINUOUS
 62
    1
 10
6682.5607779999991
 20
4368.1304700000001
 11
6475.560778
 21
4614.1304700000001
  0
LINE
  8
_0-2_LAYER1
  6
CONTINUOUS
 62
    1
 10
6475.560778
 20
4614.1304700000001
 11
6531.5607780000009
 21
4594.1304700000001
  0
LINE
  8
_0-2_LAYER1
  6
CONTINUOUS
 62
    1
 10
7163.560778
 20
4813.1304700000001
 11
7127.5607779999991
 21
4710.1304700000001
  0
CIRCLE
  8
_0-2_LAYER1
  6
CONTINUOUS
 62
    1
 10
10325.560777999999
 20
5575.1304700000001
 40
15
  0
CIRCLE
  8
_0-2_LAYER1
  6
DASHED
 62
    1
 10
10325.560777999999
 20
5575.1304700000001
 40
20
  0
CIRCLE
  8
_0-2_LAYER1
  6
CONTINUOUS
 62
    1
 10
8500.5607779999991
 20
5575.1304700000001
 40
15
  0
CIRCLE
  8
_0-2_LAYER1
  6
DASHED
 62
    1
 10
8500.5607779999991
 20
5575.1304700000001
 40
20
  0
CIRCLE
  8
_0-2_LAYER1
  6
DASHED
 62
    1
 10
6675.560778
 20
5575.1304700000001
 40
20
  0
CIRCLE
  8
_0-2_LAYER1
  6
CONTINUOUS
 62
    1
 10
6675.560778
 20
5575.1304700000001
 40
15
  0
LINE
  8
_0-2_LAYER1
  6
CONTINUOUS
 62
    1
 10
6275.560778
 20
5280.1304700000001
 11
6738.560778
 21
5197.1304700000001
  0
LINE
  8
_0-2_LAYER1
  6
CONTINUOUS
 62
    1
 10
6738.560778
 20
5197.1304700000001
 11
10725.560777999999
 21
4480.1304700000001
  0
LINE
  8
_0-2_LAYER1
  6
CONTINUOUS
 62
    1
 10
10725.560777999999
 20
5280.1304700000001
 11
6275.560778
 21
4480.1304700000001
  0
LINE
  8
_0-2_LAYER1
  6
CONTINUOUS
 62
    1
 10
7335.560778
 20
5471.1304700000001
 11
7144.560778
 21
5280.1304700000001
  0
LINE
  8
_0-2_LAYER1
  6
CONTINUOUS
 62
    1
 10
7321.5607780000009
 20
5485.1304700000001
 11
7116.5607780000009
 21
5280.1304700000001
  0
ARC
  8
_0-2_LAYER1
  6
CONTINUOUS
 62
    1
 10
7328.560778
 20
5478.1304700000001
 40
10
 50
315
 51
45
  0
ARC
  8
_0-2_LAYER1
  6
CONTINUOUS
 62
    1
 10
7328.560778
 20
5478.1304700000001
 40
10
 50
45
 51
135
  0
LINE
  8
_0-2_LAYER1
  6
CONTINUOUS
 62
    1
 10
7665.560778
 20
5471.1304700000001
 11
7474.560778
 21
5280.1304700000001
  0
LINE
  8
_0-2_LAYER1
  6
CONTINUOUS
 62
    1
 10
7651.5607780000009
 20
5485.1304700000001
 11
7446.5607780000009
 21
5280.1304700000001
  0
ARC
  8
_0-2_LAYER1
  6
CONTINUOUS
 62
    1
 10
7658.560778
 20
5478.1304700000001
 40
10
 50
315
 51
45
  0
ARC
  8
_0-2_LAYER1
  6
CONTINUOUS
 62
    1
 10
7658.560778
 20
5478.1304700000001
 40
10
 50
45
 51
135
  0
LINE
  8
_0-2_LAYER1
  6
CONTINUOUS
 62
    1
 10
7995.560778
 20
5471.1304700000001
 11
7804.560778
 21
5280.1304700000001
  0
LINE
  8
_0-2_LAYER1
  6
CONTINUOUS
 62
    1
 10
7981.5607780000009
 20
5485.1304700000001
 11
7776.5607780000009
 21
5280.1304700000001
  0
ARC
  8
_0-2_LAYER1
  6
CONTINUOUS
 62
    1
 10
7988.560778
 20
5478.1304700000001
 40
10
 50
315
 51
45
  0
ARC
  8
_0-2_LAYER1
  6
CONTINUOUS
 62
    1
 10
7988.560778
 20
5478.1304700000001
 40
10
 50
45
 51
135
  0
LINE
  8
_0-2_LAYER1
  6
CONTINUOUS
 62
    1
 10
8325.5607779999991
 20
5471.1304700000001
 11
8134.560778
 21
5280.1304700000001
  0
LINE
  8
_0-2_LAYER1
  6
CONTINUOUS
 62
    1
 10
8311.5607779999991
 20
5485.1304700000001
 11
8106.5607780000009
 21
5280.1304700000001
  0
ARC
  8
_0-2_LAYER1
  6
CONTINUOUS
 62
    1
 10
8318.5607779999991
 20
5478.1304700000001
 40
10
 50
315
 51
45
  0
ARC
  8
_0-2_LAYER1
  6
CONTINUOUS
 62
    1
 10
8318.5607779999991
 20
5478.1304700000001
 40
10
 50
45
 51
135
  0
LINE
  8
_0-2_LAYER1
  6
CONTINUOUS
 62
    1
 10
8655.5607779999991
 20
5471.1304700000001
 11
8464.5607779999991
 21
5280.1304700000001
  0
LINE
  8
_0-2_LAYER1
  6
CONTINUOUS
 62
    1
 10
8641.5607779999991
 20
5485.1304700000001
 11
8436.5607779999991
 21
5280.1304700000001
  0
ARC
  8
_0-2_LAYER1
  6
CONTINUOUS
 62
    1
 10
8648.5607779999991
 20
5478.1304700000001
 40
10
 50
315
 51
45
  0
ARC
  8
_0-2_LAYER1
  6
CONTINUOUS
 62
    1
 10
8648.5607779999991
 20
5478.1304700000001
 40
10
 50
45
 51
135
  0
LINE
  8
_0-2_LAYER1
  6
CONTINUOUS
 62
    1
 10
8985.5607779999991
 20
5471.1304700000001
 11
8794.5607779999991
 21
5280.1304700000001
  0
LINE
  8
_0-2_LAYER1
  6
CONTINUOUS
 62
    1
 10
8971.5607779999991
 20
5485.1304700000001
 11
8766.5607779999991
 21
5280.1304700000001
  0
ARC
  8
_0-2_LAYER1
  6
CONTINUOUS
 62
    1
 10
8978.5607779999991
 20
5478.1304700000001
 40
10
 50
315
 51
45
  0
ARC
  8
_0-2_LAYER1
  6
CONTINUOUS
 62
    1
 10
8978.5607779999991
 20
5478.1304700000001
 40
10
 50
45
 51
135
  0
LINE
  8
_0-2_LAYER1
  6
CONTINUOUS
 62
    1
 10
9315.5607779999991
 20
5471.1304700000001
 11
9124.5607779999991
 21
5280.1304700000001
  0
LINE
  8
_0-2_LAYER1
  6
CONTINUOUS
 62
    1
 10
9301.5607779999991
 20
5485.1304700000001
 11
9096.5607779999991
 21
5280.1304700000001
  0
ARC
  8
_0-2_LAYER1
  6
CONTINUOUS
 62
    1
 10
9308.5607779999991
 20
5478.1304700000001
 40
10
 50
315
 51
45
  0
ARC
  8
_0-2_LAYER1
  6
CONTINUOUS
 62
    1
 10
9308.5607779999991
 20
5478.1304700000001
 40
10
 50
45
 51
135
  0
LINE
  8
_0-2_LAYER1
  6
CONTINUOUS
 62
    1
 10
9645.5607779999991
 20
5471.1304700000001
 11
9454.5607779999991
 21
5280.1304700000001
  0
LINE
  8
_0-2_LAYER1
  6
CONTINUOUS
 62
    1
 10
9631.5607779999991
 20
5485.1304700000001
 11
9426.5607779999991
 21
5280.1304700000001
  0
ARC
  8
_0-2_LAYER1
  6
CONTINUOUS
 62
    1
 10
9638.5607779999991
 20
5478.1304700000001
 40
10
 50
315
 51
45
  0
ARC
  8
_0-2_LAYER1
  6
CONTINUOUS
 62
    1
 10
9638.5607779999991
 20
5478.1304700000001
 40
10
 50
45
 51
135
  0
LINE
  8
_0-2_LAYER1
  6
CONTINUOUS
 62
    1
 10
9975.5607779999991
 20
5471.1304700000001
 11
9784.5607779999991
 21
5280.1304700000001
  0
LINE
  8
_0-2_LAYER1
  6
CONTINUOUS
 62
    1
 10
9961.5607779999991
 20
5485.1304700000001
 11
9756.5607779999991
 21
5280.1304700000001
  0
ARC
  8
_0-2_LAYER1
  6
CONTINUOUS
 62
    1
 10
9968.5607779999991
 20
5478.1304700000001
 40
10
 50
315
 51
45
  0
ARC
  8
_0-2_LAYER1
  6
CONTINUOUS
 62
    1
 10
9968.5607779999991
 20
5478.1304700000001
 40
10
 50
45
 51
135
  0
LINE
  8
_0-2_LAYER1
  6
CONTINUOUS
 62
    1
 10
10305.560777999999
 20
5471.1304700000001
 11
10114.560777999999
 21
5280.1304700000001
  0
LINE
  8
_0-2_LAYER1
  6
CONTINUOUS
 62
    1
 10
10291.560777999999
 20
5485.1304700000001
 11
10086.560777999999
 21
5280.1304700000001
  0
ARC
  8
_0-2_LAYER1
  6
CONTINUOUS
 62
    1
 10
10298.560777999999
 20
5478.1304700000001
 40
10
 50
315
 51
45
  0
ARC
  8
_0-2_LAYER1
  6
CONTINUOUS
 62
    1
 10
10298.560777999999
 20
5478.1304700000001
 40
10
 50
45
 51
135
  0
LINE
  8
_0-2_LAYER1
  6
CONTINUOUS
 62
    1
 10
10635.560777999999
 20
5471.1304700000001
 11
10444.560777999999
 21
5280.1304700000001
  0
LINE
  8
_0-2_LAYER1
  6
CONTINUOUS
 62
    1
 10
10621.560777999999
 20
5485.1304700000001
 11
10416.560777999999
 21
5280.1304700000001
  0
ARC
  8
_0-2_LAYER1
  6
CONTINUOUS
 62
    1
 10
10628.560777999999
 20
5478.1304700000001
 40
10
 50
315
 51
45
  0
ARC
  8
_0-2_LAYER1
  6
CONTINUOUS
 62
    1
 10
10628.560777999999
 20
5478.1304700000001
 40
10
 50
45
 51
135
  0
LINE
  8
_0-2_LAYER1
  6
DASHED
 62
    1
 10
7175.560778
 20
4829.1304700000001
 11
7029.560778
 21
4975.1304700000001
  0
LINE
  8
_0-2_LAYER1
  6
DASHED
 62
    1
 10
7029.560778
 20
4975.1304700000001
 11
6854.560778
 21
5150.1304700000001
  0
LINE
  8
_0-2_LAYER1
  6
DASHED
 62
    1
 10
7161.5607780000009
 20
4815.1304700000001
 11
6999.560778
 21
4977.1304700000001
  0
LINE
  8
_0-2_LAYER1
  6
DASHED
 62
    1
 10
6999.560778
 20
4977.1304700000001
 11
6840.560778
 21
5136.1304700000001
  0
ARC
  8
_0-2_LAYER1
  6
DASHED
 62
    1
 10
7168.560778
 20
4822.1304700000001
 40
10
 50
315
 51
45
  0
ARC
  8
_0-2_LAYER1
  6
DASHED
 62
    1
 10
7168.560778
 20
4822.1304700000001
 40
10
 50
264.29000000000002
 51
315
  0
ARC
  8
_0-2_LAYER1
  6
DASHED
 62
    1
 10
7168.560778
 20
4822.1304700000001
 40
10
 50
225
 51
264.29000000000002
  0
ARC
  8
_0-2_LAYER1
  6
DASHED
 62
    1
 10
6847.5607779999991
 20
5143.1304700000001
 40
10
 50
135
 51
225
  0
ARC
  8
_0-2_LAYER1
  6
DASHED
 62
    1
 10
6847.5607779999991
 20
5143.1304700000001
 40
10
 50
45
 51
135
  0
LINE
  8
_0-2_LAYER1
  6
DASHED
 62
    1
 10
7505.560778
 20
4829.1304700000001
 11
7359.560778
 21
4975.1304700000001
  0
LINE
  8
_0-2_LAYER1
  6
DASHED
 62
    1
 10
7359.560778
 20
4975.1304700000001
 11
7184.560778
 21
5150.1304700000001
  0
LINE
  8
_0-2_LAYER1
  6
DASHED
 62
    1
 10
7491.5607780000009
 20
4815.1304700000001
 11
7329.560778
 21
4977.1304700000001
  0
LINE
  8
_0-2_LAYER1
  6
DASHED
 62
    1
 10
7329.560778
 20
4977.1304700000001
 11
7170.560778
 21
5136.1304700000001
  0
ARC
  8
_0-2_LAYER1
  6
DASHED
 62
    1
 10
7498.560778
 20
4822.1304700000001
 40
10
 50
315
 51
45
  0
ARC
  8
_0-2_LAYER1
  6
DASHED
 62
    1
 10
7498.560778
 20
4822.1304700000001
 40
10
 50
264.29000000000002
 51
315
  0
ARC
  8
_0-2_LAYER1
  6
DASHED
 62
    1
 10
7498.560778
 20
4822.1304700000001
 40
10
 50
225
 51
264.29000000000002
  0
ARC
  8
_0-2_LAYER1
  6
DASHED
 62
    1
 10
7177.5607779999991
 20
5143.1304700000001
 40
10
 50
135
 51
225
  0
ARC
  8
_0-2_LAYER1
  6
DASHED
 62
    1
 10
7177.5607779999991
 20
5143.1304700000001
 40
10
 50
45
 51
135
  0
LINE
  8
_0-2_LAYER1
  6
CONTINUOUS
 62
    1
 10
7362.5607779999991
 20
4944.1304700000001
 11
7376.5607780000009
 21
4958.1304700000001
  0
TEXT
  8
_0-2_LAYER1
 62
    7
 10
7384.8761189999996
 20
4978.4458109999996
 40
140
 41
0.8
 50
45
  1
2x3
  0
ARC
  8
_0-2_LAYER1
  6
CONTINUOUS
 62
    1
 10
6675.560778
 20
5485.1304700000001
 40
248
 50
227.28999999999999
 51
228.28999999999996
  0
ARC
  8
_0-2_LAYER1
  6
CONTINUOUS
 62
    1
 10
6675.560778
 20
5485.1304700000001
 40
248
 50
228.28999999999999
 51
235.75
  0
ARC
  8
_0-2_LAYER1
  6
CONTINUOUS
 62
    1
 10
6675.560778
 20
5485.1304700000001
 40
248
 50
225
 51
227.28999999999999
  0
ARC
  8
_0-2_LAYER1
  6
CONTINUOUS
 62
    1
 10
6675.560778
 20
5485.1304700000001
 40
248
 50
235.75
 51
270
  0
ARC
  8
_0-2_LAYER1
  6
CONTINUOUS
 62
    1
 10
6675.560778
 20
5485.1304700000001
 40
248
 50
303.75999999999999
 51
304.25
  0
CIRCLE
  8
_0-2_LAYER1
  6
CONTINUOUS
 62
    1
 10
6675.560778
 20
5237.1304700000001
 40
15
  0
CIRCLE
  8
_0-2_LAYER1
  6
CONTINUOUS
 62
    1
 10
6500.560778
 20
5310.1304700000001
 40
15
  0
ARC
  8
_0-2_LAYER1
  6
CONTINUOUS
 62
    1
 10
6510.560778
 20
5150.1304700000001
 40
233
 50
270
 51
312.56
  0
ARC
  8
_0-2_LAYER1
  6
CONTINUOUS
 62
    1
 10
6510.560778
 20
5150.1304700000001
 40
233
 50
312.56
 51
315
  0
ARC
  8
_0-2_LAYER1
  6
CONTINUOUS
 62
    1
 10
6510.560778
 20
5150.1304700000001
 40
233
 50
315
 51
315.07999999999998
  0
ARC
  8
_0-2_LAYER1
  6
CONTINUOUS
 62
    1
 10
6675.560778
 20
4985.1304700000001
 40
15
 50
58.390000000000008
 51
121.61000000000001
  0
ARC
  8
_0-2_LAYER1
  6
CONTINUOUS
 62
    1
 10
6675.560778
 20
4985.1304700000001
 40
15
 50
121.61000000000001
 51
58.389999999999986
  0
ARC
  8
_0-2_LAYER1
  6
CONTINUOUS
 62
    1
 10
6510.560778
 20
4917.1304700000001
 40
15
 50
11.31
 51
285.94999999999999
  0
ARC
  8
_0-2_LAYER1
  6
CONTINUOUS
 62
    1
 10
6510.560778
 20
4917.1304700000001
 40
15
 50
285.94999999999999
 51
11.309999999999997
  0
ARC
  8
_0-2_LAYER1
  6
CONTINUOUS
 62
    1
 10
6675.560778
 20
4815.1304700000001
 40
183
 50
225
 51
228.09999999999999
  0
ARC
  8
_0-2_LAYER1
  6
CONTINUOUS
 62
    1
 10
6675.560778
 20
4815.1304700000001
 40
183
 50
228.10000000000002
 51
270
  0
CIRCLE
  8
_0-2_LAYER1
  6
CONTINUOUS
 62
    1
 10
6675.560778
 20
4632.1304700000001
 40
15
  0
CIRCLE
  8
_0-2_LAYER1
  6
CONTINUOUS
 62
    1
 10
6546.5607780000009
 20
4686.1304700000001
 40
15
  0
LINE
  8
_0-2_LAYER1
  6
CONTINUOUS
 62
    1
 10
6584.560778
 20
5252.1304700000001
 11
6197.5607779999991
 21
4945.1304700000001
  0
LINE
  8
_0-2_LAYER1
  6
CONTINUOUS
 62
    1
 10
6604.560778
 20
4935.1304700000001
 11
6197.5607779999991
 21
4945.1304700000001
  0
LINE
  8
_0-2_LAYER1
  6
CONTINUOUS
 62
    1
 10
6610.560778
 20
4644.1304700000001
 11
6197.5607779999991
 21
4945.1304700000001
  0
LINE
  8
_0-2_LAYER1
  6
CONTINUOUS
 62
    1
 10
10725.560777999999
 20
3579.1304700000001
 11
6275.560778
 21
3579.1304700000001
  0
LINE
  8
_0-2_LAYER1
  6
CONTINUOUS
 62
    1
 10
10725.560777999999
 20
3719.1304700000001
 11
6275.560778
 21
3719.1304700000001
  0
LINE
  8
_0-2_LAYER1
  6
CONTINUOUS
 62
    1
 10
6670.560778
 20
3699.1304700000001
 11
6670.560778
 21
3599.1304700000001
  0
LINE
  8
_0-2_LAYER1
  6
CONTINUOUS
 62
    1
 10
6340.560778
 20
3699.1304700000001
 11
6340.560778
 21
3599.1304700000001
  0
LINE
  8
_0-2_LAYER1
  6
CONTINUOUS
 62
    1
 10
7000.560778
 20
3699.1304700000001
 11
7000.560778
 21
3599.1304700000001
  0
LINE
  8
_0-2_LAYER1
  6
CONTINUOUS
 62
    1
 10
7330.560778
 20
3599.1304700000001
 11
7330.560778
 21
3699.1304700000001
  0
LINE
  8
_0-2_LAYER1
  6
CONTINUOUS
 62
    1
 10
7660.560778
 20
3699.1304700000001
 11
7660.560778
 21
3599.1304700000001
  0
LINE
  8
_0-2_LAYER1
  6
CONTINUOUS
 62
    1
 10
7990.560778
 20
3599.1304700000001
 11
7990.560778
 21
3699.1304700000001
  0
LINE
  8
_0-2_LAYER1
  6
CONTINUOUS
 62
    1
 10
8320.5607779999991
 20
3699.1304700000001
 11
8320.5607779999991
 21
3599.1304700000001
  0
LINE
  8
_0-2_LAYER1
  6
CONTINUOUS
 62
    1
 10
8650.5607779999991
 20
3599.1304700000001
 11
8650.5607779999991
 21
3699.1304700000001
  0
LINE
  8
_0-2_LAYER1
  6
CONTINUOUS
 62
    1
 10
8980.5607779999991
 20
3699.1304700000001
 11
8980.5607779999991
 21
3599.1304700000001
  0
LINE
  8
_0-2_LAYER1
  6
CONTINUOUS
 62
    1
 10
9310.5607779999991
 20
3599.1304700000001
 11
9310.5607779999991
 21
3699.1304700000001
  0
LINE
  8
_0-2_LAYER1
  6
CONTINUOUS
 62
    1
 10
9640.5607779999991
 20
3699.1304700000001
 11
9640.5607779999991
 21
3599.1304700000001
  0
LINE
  8
_0-2_LAYER1
  6
CONTINUOUS
 62
    1
 10
9970.5607779999991
 20
3599.1304700000001
 11
9970.5607779999991
 21
3699.1304700000001
  0
LINE
  8
_0-2_LAYER1
  6
CONTINUOUS
 62
    1
 10
10300.560777999999
 20
3699.1304700000001
 11
10300.560777999999
 21
3599.1304700000001
  0
LINE
  8
_0-2_LAYER1
  6
CONTINUOUS
 62
    1
 10
10630.560777999999
 20
3599.1304700000001
 11
10630.560777999999
 21
3699.1304700000001
  0
LINE
  8
_0-2_LAYER1
  6
CONTINUOUS
 62
    1
 10
6275.560778
 20
3579.1304700000001
 11
6275.560778
 21
3719.1304700000001
  0
LINE
  8
_0-2_LAYER1
  6
CONTINUOUS
 62
    1
 10
6295.560778
 20
3599.1304700000001
 11
6295.560778
 21
3699.1304700000001
  0
LINE
  8
_0-2_LAYER1
  6
CONTINUOUS
 62
    1
 10
10725.560777999999
 20
3579.1304700000001
 11
10725.560777999999
 21
3719.1304700000001
  0
LINE
  8
_0-2_LAYER1
  6
CONTINUOUS
 62
    1
 10
10705.560777999999
 20
3599.1304700000001
 11
10705.560777999999
 21
3699.1304700000001
  0
LINE
  8
_0-2_LAYER1
  6
CONTINUOUS
 62
    1
 10
10705.560777999999
 20
3599.1304700000001
 11
6295.560778
 21
3599.1304700000001
  0
LINE
  8
_0-2_LAYER1
  6
CONTINUOUS
 62
    1
 10
10725.560777999999
 20
3699.1304700000001
 11
6275.560778
 21
3699.1304700000001
  0
TEXT
  8
_0-2_LAYER1
 62
    7
 10
1009.560778
 20
10629.13047
 40
280
 41
1
 50
0
  1
内臓型棟換気ｼｽﾃﾑ
  0
LINE
  8
_0-2_LAYER1
  6
DASHED
 62
    1
 10
6445.560778
 20
6932.1370479999996
 11
15445.560777999999
 21
6932.1370479999996
  0
LINE
  8
_0-2_LAYER1
  6
CONTINUOUS
 62
    1
 10
7245.560778
 20
6932.1370479999996
 11
7245.560778
 21
7132.1370479999996
  0
LINE
  8
_0-2_LAYER1
  6
CONTINUOUS
 62
    1
 10
7245.560778
 20
7132.1370479999996
 11
7745.560778
 21
7132.1370479999996
  0
LINE
  8
_0-2_LAYER1
  6
CONTINUOUS
 62
    1
 10
7745.560778
 20
7132.1370479999996
 11
7745.560778
 21
6932.1370479999996
  0
LINE
  8
_0-2_LAYER1
  6
CONTINUOUS
 62
    1
 10
7745.560778
 20
6932.1370479999996
 11
7245.560778
 21
6932.1370479999996
  0
LINE
  8
_0-2_LAYER1
  6
CONTINUOUS
 62
    1
 10
8045.560778
 20
6932.1370479999996
 11
8045.560778
 21
7132.1370479999996
  0
LINE
  8
_0-2_LAYER1
  6
CONTINUOUS
 62
    1
 10
8045.560778
 20
7132.1370479999996
 11
8545.5607779999991
 21
7132.1370479999996
  0
LINE
  8
_0-2_LAYER1
  6
CONTINUOUS
 62
    1
 10
8545.5607779999991
 20
7132.1370479999996
 11
8545.5607779999991
 21
6932.1370479999996
  0
LINE
  8
_0-2_LAYER1
  6
CONTINUOUS
 62
    1
 10
8545.5607779999991
 20
6932.1370479999996
 11
8045.560778
 21
6932.1370479999996
  0
LINE
  8
_0-2_LAYER1
  6
CONTINUOUS
 62
    1
 10
8845.5607779999991
 20
6932.1370479999996
 11
8845.5607779999991
 21
7132.1370479999996
  0
LINE
  8
_0-2_LAYER1
  6
CONTINUOUS
 62
    1
 10
8845.5607779999991
 20
7132.1370479999996
 11
9345.5607779999991
 21
7132.1370479999996
  0
LINE
  8
_0-2_LAYER1
  6
CONTINUOUS
 62
    1
 10
9345.5607779999991
 20
7132.1370479999996
 11
9345.5607779999991
 21
6932.1370479999996
  0
LINE
  8
_0-2_LAYER1
  6
CONTINUOUS
 62
    1
 10
9345.5607779999991
 20
6932.1370479999996
 11
8845.5607779999991
 21
6932.1370479999996
  0
LINE
  8
_0-2_LAYER1
  6
CONTINUOUS
 62
    1
 10
9645.5607779999991
 20
6932.1370479999996
 11
9645.5607779999991
 21
7132.1370479999996
  0
LINE
  8
_0-2_LAYER1
  6
CONTINUOUS
 62
    1
 10
9645.5607779999991
 20
7132.1370479999996
 11
10145.560777999999
 21
7132.1370479999996
  0
LINE
  8
_0-2_LAYER1
  6
CONTINUOUS
 62
    1
 10
10145.560777999999
 20
7132.1370479999996
 11
10145.560777999999
 21
6932.1370479999996
  0
LINE
  8
_0-2_LAYER1
  6
CONTINUOUS
 62
    1
 10
10145.560777999999
 20
6932.1370479999996
 11
9645.5607779999991
 21
6932.1370479999996
  0
LINE
  8
_0-2_LAYER1
  6
CONTINUOUS
 62
    1
 10
10445.560777999999
 20
6932.1370479999996
 11
10445.560777999999
 21
7132.1370479999996
  0
LINE
  8
_0-2_LAYER1
  6
CONTINUOUS
 62
    1
 10
10445.560777999999
 20
7132.1370479999996
 11
10945.560777999999
 21
7132.1370479999996
  0
LINE
  8
_0-2_LAYER1
  6
CONTINUOUS
 62
    1
 10
10945.560777999999
 20
7132.1370479999996
 11
10945.560777999999
 21
6932.1370479999996
  0
LINE
  8
_0-2_LAYER1
  6
CONTINUOUS
 62
    1
 10
10945.560777999999
 20
6932.1370479999996
 11
10445.560777999999
 21
6932.1370479999996
  0
LINE
  8
_0-2_LAYER1
  6
CONTINUOUS
 62
    1
 10
11245.560777999999
 20
6932.1370479999996
 11
11245.560777999999
 21
7132.1370479999996
  0
LINE
  8
_0-2_LAYER1
  6
CONTINUOUS
 62
    1
 10
11245.560777999999
 20
7132.1370479999996
 11
11745.560777999999
 21
7132.1370479999996
  0
LINE
  8
_0-2_LAYER1
  6
CONTINUOUS
 62
    1
 10
11745.560777999999
 20
7132.1370479999996
 11
11745.560777999999
 21
6932.1370479999996
  0
LINE
  8
_0-2_LAYER1
  6
CONTINUOUS
 62
    1
 10
11745.560777999999
 20
6932.1370479999996
 11
11245.560777999999
 21
6932.1370479999996
  0
LINE
  8
_0-2_LAYER1
  6
CONTINUOUS
 62
    1
 10
12045.560777999999
 20
6932.1370479999996
 11
12045.560777999999
 21
7132.1370479999996
  0
LINE
  8
_0-2_LAYER1
  6
CONTINUOUS
 62
    1
 10
12045.560777999999
 20
7132.1370479999996
 11
12545.560777999999
 21
7132.1370479999996
  0
LINE
  8
_0-2_LAYER1
  6
CONTINUOUS
 62
    1
 10
12545.560777999999
 20
7132.1370479999996
 11
12545.560777999999
 21
6932.1370479999996
  0
LINE
  8
_0-2_LAYER1
  6
CONTINUOUS
 62
    1
 10
12545.560777999999
 20
6932.1370479999996
 11
12045.560777999999
 21
6932.1370479999996
  0
LINE
  8
_0-2_LAYER1
  6
CONTINUOUS
 62
    1
 10
12845.560777999999
 20
6932.1370479999996
 11
12845.560777999999
 21
7132.1370479999996
  0
LINE
  8
_0-2_LAYER1
  6
CONTINUOUS
 62
    1
 10
12845.560777999999
 20
7132.1370479999996
 11
13345.560777999999
 21
7132.1370479999996
  0
LINE
  8
_0-2_LAYER1
  6
CONTINUOUS
 62
    1
 10
13345.560777999999
 20
7132.1370479999996
 11
13345.560777999999
 21
6932.1370479999996
  0
LINE
  8
_0-2_LAYER1
  6
CONTINUOUS
 62
    1
 10
13345.560777999999
 20
6932.1370479999996
 11
12845.560777999999
 21
6932.1370479999996
  0
LINE
  8
_0-2_LAYER1
  6
CONTINUOUS
 62
    1
 10
13645.560777999999
 20
6932.1370479999996
 11
13645.560777999999
 21
7132.1370479999996
  0
LINE
  8
_0-2_LAYER1
  6
CONTINUOUS
 62
    1
 10
13645.560777999999
 20
7132.1370479999996
 11
14145.560777999999
 21
7132.1370479999996
  0
LINE
  8
_0-2_LAYER1
  6
CONTINUOUS
 62
    1
 10
14145.560777999999
 20
7132.1370479999996
 11
14145.560777999999
 21
6932.1370479999996
  0
LINE
  8
_0-2_LAYER1
  6
CONTINUOUS
 62
    1
 10
14145.560777999999
 20
6932.1370479999996
 11
13645.560777999999
 21
6932.1370479999996
  0
LINE
  8
_0-2_LAYER1
  6
CONTINUOUS
 62
    1
 10
14445.560777999999
 20
6932.1370479999996
 11
14445.560777999999
 21
7132.1370479999996
  0
LINE
  8
_0-2_LAYER1
  6
CONTINUOUS
 62
    1
 10
14445.560777999999
 20
7132.1370479999996
 11
14945.560777999999
 21
7132.1370479999996
  0
LINE
  8
_0-2_LAYER1
  6
CONTINUOUS
 62
    1
 10
14945.560777999999
 20
7132.1370479999996
 11
14945.560777999999
 21
6932.1370479999996
  0
LINE
  8
_0-2_LAYER1
  6
CONTINUOUS
 62
    1
 10
14945.560777999999
 20
6932.1370479999996
 11
14445.560777999999
 21
6932.1370479999996
  0
LINE
  8
_0-2_LAYER1
  6
DASHED
 62
    1
 10
13845.560777999999
 20
7214.1304700000001
 11
13845.560777999999
 21
7414.1304700000001
  0
LINE
  8
_0-2_LAYER1
  6
DASHED
 62
    1
 10
13845.560777999999
 20
7414.1304700000001
 11
14345.560777999999
 21
7414.1304700000001
  0
LINE
  8
_0-2_LAYER1
  6
DASHED
 62
    1
 10
14345.560777999999
 20
7414.1304700000001
 11
14345.560777999999
 21
7214.1304700000001
  0
LINE
  8
_0-2_LAYER1
  6
DASHED
 62
    1
 10
14345.560777999999
 20
7214.1304700000001
 11
13845.560777999999
 21
7214.1304700000001
  0
LINE
  8
_0-2_LAYER1
  6
DASHED
 62
    1
 10
13045.560777999999
 20
7214.1304700000001
 11
13045.560777999999
 21
7414.1304700000001
  0
LINE
  8
_0-2_LAYER1
  6
DASHED
 62
    1
 10
13045.560777999999
 20
7414.1304700000001
 11
13545.560777999999
 21
7414.1304700000001
  0
LINE
  8
_0-2_LAYER1
  6
DASHED
 62
    1
 10
13545.560777999999
 20
7414.1304700000001
 11
13545.560777999999
 21
7214.1304700000001
  0
LINE
  8
_0-2_LAYER1
  6
DASHED
 62
    1
 10
13545.560777999999
 20
7214.1304700000001
 11
13045.560777999999
 21
7214.1304700000001
  0
LINE
  8
_0-2_LAYER1
  6
DASHED
 62
    1
 10
12245.560777999999
 20
7214.1304700000001
 11
12245.560777999999
 21
7414.1304700000001
  0
LINE
  8
_0-2_LAYER1
  6
DASHED
 62
    1
 10
12245.560777999999
 20
7414.1304700000001
 11
12745.560777999999
 21
7414.1304700000001
  0
LINE
  8
_0-2_LAYER1
  6
DASHED
 62
    1
 10
12745.560777999999
 20
7414.1304700000001
 11
12745.560777999999
 21
7214.1304700000001
  0
LINE
  8
_0-2_LAYER1
  6
DASHED
 62
    1
 10
12745.560777999999
 20
7214.1304700000001
 11
12245.560777999999
 21
7214.1304700000001
  0
LINE
  8
_0-2_LAYER1
  6
DASHED
 62
    1
 10
11445.560777999999
 20
7214.1304700000001
 11
11445.560777999999
 21
7414.1304700000001
  0
LINE
  8
_0-2_LAYER1
  6
DASHED
 62
    1
 10
11445.560777999999
 20
7414.1304700000001
 11
11945.560777999999
 21
7414.1304700000001
  0
LINE
  8
_0-2_LAYER1
  6
DASHED
 62
    1
 10
11945.560777999999
 20
7414.1304700000001
 11
11945.560777999999
 21
7214.1304700000001
  0
LINE
  8
_0-2_LAYER1
  6
DASHED
 62
    1
 10
11945.560777999999
 20
7214.1304700000001
 11
11445.560777999999
 21
7214.1304700000001
  0
LINE
  8
_0-2_LAYER1
  6
DASHED
 62
    1
 10
10645.560777999999
 20
7214.1304700000001
 11
10645.560777999999
 21
7414.1304700000001
  0
LINE
  8
_0-2_LAYER1
  6
DASHED
 62
    1
 10
10645.560777999999
 20
7414.1304700000001
 11
11145.560777999999
 21
7414.1304700000001
  0
LINE
  8
_0-2_LAYER1
  6
DASHED
 62
    1
 10
11145.560777999999
 20
7414.1304700000001
 11
11145.560777999999
 21
7214.1304700000001
  0
LINE
  8
_0-2_LAYER1
  6
DASHED
 62
    1
 10
11145.560777999999
 20
7214.1304700000001
 11
10645.560777999999
 21
7214.1304700000001
  0
LINE
  8
_0-2_LAYER1
  6
DASHED
 62
    1
 10
9845.5607779999991
 20
7214.1304700000001
 11
9845.5607779999991
 21
7414.1304700000001
  0
LINE
  8
_0-2_LAYER1
  6
DASHED
 62
    1
 10
9845.5607779999991
 20
7414.1304700000001
 11
10345.560777999999
 21
7414.1304700000001
  0
LINE
  8
_0-2_LAYER1
  6
DASHED
 62
    1
 10
10345.560777999999
 20
7414.1304700000001
 11
10345.560777999999
 21
7214.1304700000001
  0
LINE
  8
_0-2_LAYER1
  6
DASHED
 62
    1
 10
10345.560777999999
 20
7214.1304700000001
 11
9845.5607779999991
 21
7214.1304700000001
  0
LINE
  8
_0-2_LAYER1
  6
DASHED
 62
    1
 10
9045.5607779999991
 20
7214.1304700000001
 11
9045.5607779999991
 21
7414.1304700000001
  0
LINE
  8
_0-2_LAYER1
  6
DASHED
 62
    1
 10
9045.5607779999991
 20
7414.1304700000001
 11
9545.5607779999991
 21
7414.1304700000001
  0
LINE
  8
_0-2_LAYER1
  6
DASHED
 62
    1
 10
9545.5607779999991
 20
7414.1304700000001
 11
9545.5607779999991
 21
7214.1304700000001
  0
LINE
  8
_0-2_LAYER1
  6
DASHED
 62
    1
 10
9545.5607779999991
 20
7214.1304700000001
 11
9045.5607779999991
 21
7214.1304700000001
  0
LINE
  8
_0-2_LAYER1
  6
DASHED
 62
    1
 10
8245.5607779999991
 20
7214.1304700000001
 11
8245.5607779999991
 21
7414.1304700000001
  0
LINE
  8
_0-2_LAYER1
  6
DASHED
 62
    1
 10
8245.5607779999991
 20
7414.1304700000001
 11
8745.5607779999991
 21
7414.1304700000001
  0
LINE
  8
_0-2_LAYER1
  6
DASHED
 62
    1
 10
8745.5607779999991
 20
7414.1304700000001
 11
8745.5607779999991
 21
7214.1304700000001
  0
LINE
  8
_0-2_LAYER1
  6
DASHED
 62
    1
 10
8745.5607779999991
 20
7214.1304700000001
 11
8245.5607779999991
 21
7214.1304700000001
  0
LINE
  8
_0-2_LAYER1
  6
DASHED
 62
    1
 10
7445.560778
 20
7214.1304700000001
 11
7445.560778
 21
7414.1304700000001
  0
LINE
  8
_0-2_LAYER1
  6
DASHED
 62
    1
 10
7445.560778
 20
7414.1304700000001
 11
7945.560778
 21
7414.1304700000001
  0
LINE
  8
_0-2_LAYER1
  6
DASHED
 62
    1
 10
7945.560778
 20
7414.1304700000001
 11
7945.560778
 21
7214.1304700000001
  0
LINE
  8
_0-2_LAYER1
  6
DASHED
 62
    1
 10
7945.560778
 20
7214.1304700000001
 11
7445.560778
 21
7214.1304700000001
  0
LINE
  8
_0-2_LAYER1
  6
DASHED
 62
    1
 10
6645.560778
 20
7214.1304700000001
 11
6645.560778
 21
7414.1304700000001
  0
LINE
  8
_0-2_LAYER1
  6
DASHED
 62
    1
 10
6645.560778
 20
7414.1304700000001
 11
7145.560778
 21
7414.1304700000001
  0
LINE
  8
_0-2_LAYER1
  6
DASHED
 62
    1
 10
7145.560778
 20
7414.1304700000001
 11
7145.560778
 21
7214.1304700000001
  0
LINE
  8
_0-2_LAYER1
  6
DASHED
 62
    1
 10
7145.560778
 20
7214.1304700000001
 11
6645.560778
 21
7214.1304700000001
  0
LINE
  8
_0-2_LAYER1
  6
DASHED
 62
    1
 10
14645.560777999999
 20
7214.1304700000001
 11
14645.560777999999
 21
7414.1304700000001
  0
LINE
  8
_0-2_LAYER1
  6
DASHED
 62
    1
 10
14645.560777999999
 20
7414.1304700000001
 11
15145.560777999999
 21
7414.1304700000001
  0
LINE
  8
_0-2_LAYER1
  6
DASHED
 62
    1
 10
15145.560777999999
 20
7414.1304700000001
 11
15145.560777999999
 21
7214.1304700000001
  0
LINE
  8
_0-2_LAYER1
  6
DASHED
 62
    1
 10
15145.560777999999
 20
7214.1304700000001
 11
14645.560777999999
 21
7214.1304700000001
  0
LINE
  8
_0-2_LAYER1
  6
CONTINUOUS
 62
    1
 10
6545.560778
 20
10588.13047
 11
6545.560778
 21
10388.13047
  0
LINE
  8
_0-2_LAYER1
  6
CONTINUOUS
 62
    1
 10
6545.560778
 20
10588.13047
 11
6985.560778
 21
10588.13047
  0
LINE
  8
_0-2_LAYER1
  6
CONTINUOUS
 62
    1
 10
6985.560778
 20
10588.13047
 11
6985.560778
 21
10388.13047
  0
LINE
  8
_0-2_LAYER1
  6
CONTINUOUS
 62
    1
 10
6985.560778
 20
10588.13047
 11
7875.560778
 21
10588.13047
  0
LINE
  8
_0-2_LAYER1
  6
CONTINUOUS
 62
    1
 10
7875.560778
 20
10588.13047
 11
7875.560778
 21
10388.13047
  0
LINE
  8
_0-2_LAYER1
  6
CONTINUOUS
 62
    1
 10
8765.5607779999991
 20
10588.13047
 11
8765.5607779999991
 21
10388.13047
  0
LINE
  8
_0-2_LAYER1
  6
CONTINUOUS
 62
    1
 10
7875.560778
 20
10588.13047
 11
8765.5607779999991
 21
10588.13047
  0
LINE
  8
_0-2_LAYER1
  6
CONTINUOUS
 62
    1
 10
8765.5607779999991
 20
10588.13047
 11
9655.5607779999991
 21
10588.13047
  0
LINE
  8
_0-2_LAYER1
  6
CONTINUOUS
 62
    1
 10
9655.5607779999991
 20
10588.13047
 11
9655.5607779999991
 21
10388.13047
  0
LINE
  8
_0-2_LAYER1
  6
CONTINUOUS
 62
    1
 10
10545.560777999999
 20
10588.13047
 11
10545.560777999999
 21
10388.13047
  0
LINE
  8
_0-2_LAYER1
  6
CONTINUOUS
 62
    1
 10
9655.5607779999991
 20
10588.13047
 11
10545.560777999999
 21
10588.13047
  0
LINE
  8
_0-2_LAYER1
  6
CONTINUOUS
 62
    1
 10
11435.560777999999
 20
10588.13047
 11
11435.560777999999
 21
10388.13047
  0
LINE
  8
_0-2_LAYER1
  6
CONTINUOUS
 62
    1
 10
10545.560777999999
 20
10588.13047
 11
11435.560777999999
 21
10588.13047
  0
LINE
  8
_0-2_LAYER1
  6
CONTINUOUS
 62
    1
 10
12325.560777999999
 20
10588.13047
 11
12325.560777999999
 21
10388.13047
  0
LINE
  8
_0-2_LAYER1
  6
CONTINUOUS
 62
    1
 10
11435.560777999999
 20
10588.13047
 11
12325.560777999999
 21
10588.13047
  0
LINE
  8
_0-2_LAYER1
  6
CONTINUOUS
 62
    1
 10
12325.560777999999
 20
10588.13047
 11
13215.560777999999
 21
10588.13047
  0
LINE
  8
_0-2_LAYER1
  6
CONTINUOUS
 62
    1
 10
13215.560777999999
 20
10588.13047
 11
13215.560777999999
 21
10388.13047
  0
LINE
  8
_0-2_LAYER1
  6
CONTINUOUS
 62
    1
 10
14105.560777999999
 20
10588.13047
 11
14105.560777999999
 21
10388.13047
  0
LINE
  8
_0-2_LAYER1
  6
CONTINUOUS
 62
    1
 10
13215.560777999999
 20
10588.13047
 11
14105.560777999999
 21
10588.13047
  0
LINE
  8
_0-2_LAYER1
  6
CONTINUOUS
 62
    1
 10
14995.560777999999
 20
10588.13047
 11
14995.560777999999
 21
10388.13047
  0
LINE
  8
_0-2_LAYER1
  6
CONTINUOUS
 62
    1
 10
14105.560777999999
 20
10588.13047
 11
14995.560777999999
 21
10588.13047
  0
LINE
  8
_0-2_LAYER1
  6
CONTINUOUS
 62
    1
 10
15445.560777999999
 20
10588.13047
 11
15445.560777999999
 21
10388.13047
  0
LINE
  8
_0-2_LAYER1
  6
CONTINUOUS
 62
    1
 10
14995.560777999999
 20
10588.13047
 11
15445.560777999999
 21
10588.13047
  0
LINE
  8
_0-2_LAYER1
  6
CONTINUOUS
 62
    1
 10
15445.560777999999
 20
10788.13047
 11
15445.560777999999
 21
10588.13047
  0
LINE
  8
_0-2_LAYER1
  6
CONTINUOUS
 62
    1
 10
15445.560777999999
 20
10788.13047
 11
6545.560778
 21
10788.13047
  0
LINE
  8
_0-2_LAYER1
  6
CONTINUOUS
 62
    1
 10
6445.560778
 20
10788.13047
 11
6445.560778
 21
10388.13047
  0
LINE
  8
_0-2_LAYER1
  6
CONTINUOUS
 62
    1
 10
6545.560778
 20
10788.13047
 11
6545.560778
 21
10588.13047
  0
LINE
  8
_0-2_LAYER1
  6
CONTINUOUS
 62
    1
 10
6445.560778
 20
10788.13047
 11
6545.560778
 21
10788.13047
  0
LINE
  8
_0-2_LAYER1
  6
CONTINUOUS
 62
    1
 10
6545.560778
 20
8728.1304700000001
 11
6545.560778
 21
8928.1304700000001
  0
LINE
  8
_0-2_LAYER1
  6
CONTINUOUS
 62
    1
 10
7995.560778
 20
8728.1304700000001
 11
7995.560778
 21
8928.1304700000001
  0
LINE
  8
_0-2_LAYER1
  6
CONTINUOUS
 62
    1
 10
6545.560778
 20
8728.1304700000001
 11
7995.560778
 21
8728.1304700000001
  0
LINE
  8
_0-2_LAYER1
  6
CONTINUOUS
 62
    1
 10
9995.5607779999991
 20
8728.1304700000001
 11
9995.5607779999991
 21
8928.1304700000001
  0
LINE
  8
_0-2_LAYER1
  6
CONTINUOUS
 62
    1
 10
7995.560778
 20
8728.1304700000001
 11
9995.5607779999991
 21
8728.1304700000001
  0
LINE
  8
_0-2_LAYER1
  6
CONTINUOUS
 62
    1
 10
9995.5607779999991
 20
8728.1304700000001
 11
11995.560777999999
 21
8728.1304700000001
  0
LINE
  8
_0-2_LAYER1
  6
CONTINUOUS
 62
    1
 10
11995.560777999999
 20
8728.1304700000001
 11
11995.560777999999
 21
8928.1304700000001
  0
LINE
  8
_0-2_LAYER1
  6
CONTINUOUS
 62
    1
 10
13995.560777999999
 20
8728.1304700000001
 11
13995.560777999999
 21
8928.1304700000001
  0
LINE
  8
_0-2_LAYER1
  6
CONTINUOUS
 62
    1
 10
11995.560777999999
 20
8728.1304700000001
 11
13995.560777999999
 21
8728.1304700000001
  0
LINE
  8
_0-2_LAYER1
  6
CONTINUOUS
 62
    1
 10
15445.560777999999
 20
8728.1304700000001
 11
15445.560777999999
 21
8928.1304700000001
  0
LINE
  8
_0-2_LAYER1
  6
CONTINUOUS
 62
    1
 10
13995.560777999999
 20
8728.1304700000001
 11
15445.560777999999
 21
8728.1304700000001
  0
LINE
  8
_0-2_LAYER1
  6
CONTINUOUS
 62
    1
 10
9845.5607779999991
 20
8804.1304700000001
 11
9845.5607779999991
 21
9004.1304700000001
  0
LINE
  8
_0-2_LAYER1
  6
CONTINUOUS
 62
    1
 10
10145.560777999999
 20
8804.1304700000001
 11
10145.560777999999
 21
9004.1304700000001
  0
LINE
  8
_0-2_LAYER1
  6
CONTINUOUS
 62
    1
 10
9845.5607779999991
 20
8804.1304700000001
 11
10145.560777999999
 21
8804.1304700000001
  0
LINE
  8
_0-2_LAYER1
  6
CONTINUOUS
 62
    1
 10
10478.921909999999
 20
9055.1304700000001
 11
10278.921909999999
 21
9055.1304700000001
  0
LINE
  8
_0-2_LAYER1
  6
CONTINUOUS
 62
    1
 10
10478.921909999999
 20
9255.1304700000001
 11
10278.921909999999
 21
9255.1304700000001
  0
LINE
  8
_0-2_LAYER1
  6
CONTINUOUS
 62
    1
 10
10478.921909999999
 20
9055.1304700000001
 11
10478.921909999999
 21
9255.1304700000001
  0
LINE
  8
_0-2_LAYER1
  6
CONTINUOUS
 62
    1
 10
6275.560778
 20
6285.1304700000001
 11
6275.560778
 21
5885.1304700000001
  0
LINE
  8
_0-2_LAYER1
  6
CONTINUOUS
 62
    1
 10
6675.560778
 20
6285.1304700000001
 11
6675.560778
 21
6085.1304700000001
  0
LINE
  8
_0-2_LAYER1
  6
CONTINUOUS
 62
    1
 10
6275.560778
 20
6285.1304700000001
 11
6675.560778
 21
6285.1304700000001
  0
TEXT
  8
_0-2_LAYER1
 62
    7
 10
6423.060778
 20
6305.1304700000001
 40
140
 41
0.8
 50
0
  1
40
  0
LINE
  8
_0-2_LAYER1
  6
CONTINUOUS
 62
    1
 10
8500.5607779999991
 20
6285.1304700000001
 11
8500.5607779999991
 21
6085.1304700000001
  0
LINE
  8
_0-2_LAYER1
  6
CONTINUOUS
 62
    1
 10
6675.560778
 20
6285.1304700000001
 11
8500.5607779999991
 21
6285.1304700000001
  0
TEXT
  8
_0-2_LAYER1
 62
    7
 10
7456.810778
 20
6305.1304700000001
 40
140
 41
0.8
 50
0
  1
182.5
  0
LINE
  8
_0-2_LAYER1
  6
CONTINUOUS
 62
    1
 10
6675.560778
 20
6085.1304700000001
 11
6675.560778
 21
5575.1304700000001
  0
LINE
  8
_0-2_LAYER1
  6
CONTINUOUS
 62
    1
 10
7005.560778
 20
6085.1304700000001
 11
7005.560778
 21
5885.1304700000001
  0
LINE
  8
_0-2_LAYER1
  6
CONTINUOUS
 62
    1
 10
6675.560778
 20
6085.1304700000001
 11
7005.560778
 21
6085.1304700000001
  0
TEXT
  8
_0-2_LAYER1
 62
    7
 10
6709.310778
 20
6105.1304700000001
 40
140
 41
0.8
 50
0
  1
12-33
  0
LINE
  8
_0-2_LAYER1
  6
CONTINUOUS
 62
    1
 10
6510.560778
 20
5885.1304700000001
 11
6510.560778
 21
5685.1304700000001
  0
LINE
  8
_0-2_LAYER1
  6
CONTINUOUS
 62
    1
 10
6840.560778
 20
5885.1304700000001
 11
6840.560778
 21
5685.1304700000001
  0
LINE
  8
_0-2_LAYER1
  6
CONTINUOUS
 62
    1
 10
6510.560778
 20
5885.1304700000001
 11
6840.560778
 21
5885.1304700000001
  0
TEXT
  8
_0-2_LAYER1
 62
    7
 10
6544.310778
 20
5905.1304700000001
 40
140
 41
0.8
 50
0
  1
12-33
  0
LINE
  8
_0-2_LAYER1
  6
CONTINUOUS
 62
    1
 10
6275.560778
 20
5885.1304700000001
 11
6275.560778
 21
5685.1304700000001
  0
LINE
  8
_0-2_LAYER1
  6
CONTINUOUS
 62
    1
 10
6275.560778
 20
5885.1304700000001
 11
6510.560778
 21
5885.1304700000001
  0
TEXT
  8
_0-2_LAYER1
 62
    7
 10
6288.060778
 20
5905.1304700000001
 40
140
 41
0.8
 50
0
  1
23.5
  0
LINE
  8
_0-2_LAYER1
  6
CONTINUOUS
 62
    1
 10
8500.5607779999991
 20
6285.1304700000001
 11
8500.5607779999991
 21
5575.1304700000001
  0
LINE
  8
_0-2_LAYER1
  6
CONTINUOUS
 62
    1
 10
10325.560777999999
 20
6285.1304700000001
 11
10325.560777999999
 21
5575.1304700000001
  0
LINE
  8
_0-2_LAYER1
  6
CONTINUOUS
 62
    1
 10
8500.5607779999991
 20
6285.1304700000001
 11
10325.560777999999
 21
6285.1304700000001
  0
TEXT
  8
_0-2_LAYER1
 62
    7
 10
9281.8107779999991
 20
6305.1304700000001
 40
140
 41
0.8
 50
0
  1
182.5
  0
LINE
  8
_0-2_LAYER1
  6
CONTINUOUS
 62
    1
 10
11125.560777999999
 20
4480.1304700000001
 11
10925.560777999999
 21
4480.1304700000001
  0
LINE
  8
_0-2_LAYER1
  6
CONTINUOUS
 62
    1
 10
11125.560777999999
 20
4815.1304700000001
 11
10925.560777999999
 21
4815.1304700000001
  0
LINE
  8
_0-2_LAYER1
  6
CONTINUOUS
 62
    1
 10
11125.560777999999
 20
4480.1304700000001
 11
11125.560777999999
 21
4815.1304700000001
  0
TEXT
  8
_0-2_LAYER1
 62
    7
 10
11105.560777999999
 20
4542.6304700000001
 40
140
 41
0.8
 50
90
  1
33.5
  0
LINE
  8
_0-2_LAYER1
  6
CONTINUOUS
 62
    1
 10
11125.560777999999
 20
4815.1304700000001
 11
11125.560777999999
 21
5150.1304700000001
  0
TEXT
  8
_0-2_LAYER1
 62
    7
 10
11105.560777999999
 20
4877.6304700000001
 40
140
 41
0.8
 50
90
  1
33.5
  0
LINE
  8
_0-2_LAYER1
  6
CONTINUOUS
 62
    1
 10
11125.560777999999
 20
5150.1304700000001
 11
10925.560777999999
 21
5150.1304700000001
  0
LINE
  8
_0-2_LAYER1
  6
CONTINUOUS
 62
    1
 10
11125.560777999999
 20
5485.1304700000001
 11
10925.560777999999
 21
5485.1304700000001
  0
LINE
  8
_0-2_LAYER1
  6
CONTINUOUS
 62
    1
 10
11125.560777999999
 20
5150.1304700000001
 11
11125.560777999999
 21
5485.1304700000001
  0
TEXT
  8
_0-2_LAYER1
 62
    7
 10
11105.560777999999
 20
5212.6304700000001
 40
140
 41
0.8
 50
90
  1
33.5
  0
LINE
  8
_0-2_LAYER1
  6
CONTINUOUS
 62
    1
 10
11325.560777999999
 20
4480.1304700000001
 11
11125.560777999999
 21
4480.1304700000001
  0
LINE
  8
_0-2_LAYER1
  6
CONTINUOUS
 62
    1
 10
11325.560777999999
 20
5095.1304700000001
 11
10525.560777999999
 21
5095.1304700000001
  0
LINE
  8
_0-2_LAYER1
  6
CONTINUOUS
 62
    1
 10
11325.560777999999
 20
4480.1304700000001
 11
11325.560777999999
 21
5095.1304700000001
  0
TEXT
  8
_0-2_LAYER1
 62
    7
 10
11305.560777999999
 20
4682.6304700000001
 40
140
 41
0.8
 50
90
  1
61.5
  0
LINE
  8
_0-2_LAYER1
  6
CONTINUOUS
 62
    1
 10
11525.560777999999
 20
4480.1304700000001
 11
11325.560777999999
 21
4480.1304700000001
  0
LINE
  8
_0-2_LAYER1
  6
CONTINUOUS
 62
    1
 10
11525.560777999999
 20
5280.1304700000001
 11
10925.560777999999
 21
5280.1304700000001
  0
LINE
  8
_0-2_LAYER1
  6
CONTINUOUS
 62
    1
 10
11525.560777999999
 20
4480.1304700000001
 11
11525.560777999999
 21
5280.1304700000001
  0
TEXT
  8
_0-2_LAYER1
 62
    7
 10
11505.560777999999
 20
4827.6304700000001
 40
140
 41
0.8
 50
90
  1
80
  0
LINE
  8
_0-2_LAYER1
  6
CONTINUOUS
 62
    1
 10
11725.560777999999
 20
4480.1304700000001
 11
11525.560777999999
 21
4480.1304700000001
  0
LINE
  8
_0-2_LAYER1
  6
CONTINUOUS
 62
    1
 10
11725.560777999999
 20
5575.1304700000001
 11
10325.560777999999
 21
5575.1304700000001
  0
LINE
  8
_0-2_LAYER1
  6
CONTINUOUS
 62
    1
 10
11725.560777999999
 20
4480.1304700000001
 11
11725.560777999999
 21
5575.1304700000001
  0
TEXT
  8
_0-2_LAYER1
 62
    7
 10
11705.560777999999
 20
4896.3804700000001
 40
140
 41
0.8
 50
90
  1
109.5
  0
LINE
  8
_0-2_LAYER1
  6
CONTINUOUS
 62
    1
 10
11925.560777999999
 20
4480.1304700000001
 11
11725.560777999999
 21
4480.1304700000001
  0
LINE
  8
_0-2_LAYER1
  6
CONTINUOUS
 62
    1
 10
11925.560777999999
 20
5640.1304700000001
 11
10925.560777999999
 21
5640.1304700000001
  0
LINE
  8
_0-2_LAYER1
  6
CONTINUOUS
 62
    1
 10
11925.560777999999
 20
4480.1304700000001
 11
11925.560777999999
 21
5640.1304700000001
  0
TEXT
  8
_0-2_LAYER1
 62
    7
 10
11905.560777999999
 20
4981.3804700000001
 40
140
 41
0.8
 50
90
  1
116
  0
LINE
  8
_0-2_LAYER1
  6
CONTINUOUS
 62
    1
 10
6019.0617380000003
 20
4480.1304700000001
 11
6219.0617380000003
 21
4480.1304700000001
  0
LINE
  8
_0-2_LAYER1
  6
CONTINUOUS
 62
    1
 10
6019.0617380000003
 20
4615.1304700000001
 11
6475.560778
 21
4615.1304700000001
  0
LINE
  8
_0-2_LAYER1
  6
CONTINUOUS
 62
    1
 10
6019.0617380000003
 20
4480.1304700000001
 11
6019.0617380000003
 21
4615.1304700000001
  0
TEXT
  8
_0-2_LAYER1
 62
    7
 10
5999.0617380000003
 20
4442.6304700000001
 40
140
 41
0.8
 50
90
  1
13.5
  0
LINE
  8
_0-2_LAYER1
  6
CONTINUOUS
 62
    1
 10
6275.560778
 20
4230.1304700000001
 11
6275.560778
 21
4430.1304700000001
  0
LINE
  8
_0-2_LAYER1
  6
CONTINUOUS
 62
    1
 10
6295.560778
 20
4230.1304700000001
 11
6295.560778
 21
4430.1304700000001
  0
LINE
  8
_0-2_LAYER1
  6
CONTINUOUS
 62
    1
 10
6275.560778
 20
4230.1304700000001
 11
6295.560778
 21
4230.1304700000001
  0
TEXT
  8
_0-2_LAYER1
 62
    7
 10
6203.060778
 20
4250.1304700000001
 40
140
 41
0.8
 50
0
  1
2
  0
LINE
  8
_0-2_LAYER1
  6
CONTINUOUS
 62
    1
 10
6275.560778
 20
4030.1304700000001
 11
6275.560778
 21
4230.1304700000001
  0
LINE
  8
_0-2_LAYER1
  6
CONTINUOUS
 62
    1
 10
6475.560778
 20
4030.1304700000001
 11
6475.560778
 21
4230.1304700000001
  0
LINE
  8
_0-2_LAYER1
  6
CONTINUOUS
 62
    1
 10
6275.560778
 20
4030.1304700000001
 11
6475.560778
 21
4030.1304700000001
  0
TEXT
  8
_0-2_LAYER1
 62
    7
 10
6323.060778
 20
4050.1304700000001
 40
140
 41
0.8
 50
0
  1
20
  0
LINE
  8
_0-2_LAYER1
  6
CONTINUOUS
 62
    1
 10
6475.560778
 20
4030.1304700000001
 11
6475.560778
 21
4615.1304700000001
  0
LINE
  8
_0-2_LAYER1
  6
CONTINUOUS
 62
    1
 10
10525.560777999999
 20
4030.1304700000001
 11
10525.560777999999
 21
5095.1304700000001
  0
LINE
  8
_0-2_LAYER1
  6
CONTINUOUS
 62
    1
 10
6475.560778
 20
4030.1304700000001
 11
10525.560777999999
 21
4030.1304700000001
  0
TEXT
  8
_0-2_LAYER1
 62
    7
 10
8421.8107779999991
 20
4050.1304700000001
 40
140
 41
0.8
 50
0
  1
405
  0
LINE
  8
_0-2_LAYER1
  6
CONTINUOUS
 62
    1
 10
6275.560778
 20
3830.1304700000001
 11
6275.560778
 21
4030.1304700000001
  0
LINE
  8
_0-2_LAYER1
  6
CONTINUOUS
 62
    1
 10
10725.560777999999
 20
3830.1304700000001
 11
10725.560777999999
 21
4430.1304700000001
  0
LINE
  8
_0-2_LAYER1
  6
CONTINUOUS
 62
    1
 10
6275.560778
 20
3830.1304700000001
 11
10725.560777999999
 21
3830.1304700000001
  0
TEXT
  8
_0-2_LAYER1
 62
    7
 10
8421.8107779999991
 20
3850.1304700000001
 40
140
 41
0.8
 50
0
  1
445
  0
LINE
  8
_0-2_LAYER1
  6
CONTINUOUS
 62
    1
 10
6484.560778
 20
2888.1304700000001
 11
6484.560778
 21
2688.1304700000001
  0
LINE
  8
_0-2_LAYER1
  6
CONTINUOUS
 62
    1
 10
6484.560778
 20
2888.1304700000001
 11
6734.560778
 21
2888.1304700000001
  0
TEXT
  8
_0-2_LAYER1
 62
    7
 10
6557.060778
 20
2908.1304700000001
 40
140
 41
0.8
 50
0
  1
25
  0
LINE
  8
_0-2_LAYER1
  6
CONTINUOUS
 62
    1
 10
6734.560778
 20
2888.1304700000001
 11
6734.560778
 21
2688.1304700000001
  0
LINE
  8
_0-2_LAYER1
  6
CONTINUOUS
 62
    1
 10
6734.560778
 20
2888.1304700000001
 11
7234.560778
 21
2888.1304700000001
  0
TEXT
  8
_0-2_LAYER1
 62
    7
 10
6932.060778
 20
2908.1304700000001
 40
140
 41
0.8
 50
0
  1
50
  0
LINE
  8
_0-2_LAYER1
  6
CONTINUOUS
 62
    1
 10
7234.560778
 20
2888.1304700000001
 11
7234.560778
 21
2688.1304700000001
  0
LINE
  8
_0-2_LAYER1
  6
CONTINUOUS
 62
    1
 10
7534.560778
 20
2888.1304700000001
 11
7534.560778
 21
2688.1304700000001
  0
LINE
  8
_0-2_LAYER1
  6
CONTINUOUS
 62
    1
 10
7234.560778
 20
2888.1304700000001
 11
7534.560778
 21
2888.1304700000001
  0
TEXT
  8
_0-2_LAYER1
 62
    7
 10
7332.060778
 20
2908.1304700000001
 40
140
 41
0.8
 50
0
  1
30
  0
LINE
  8
_0-2_LAYER1
  6
CONTINUOUS
 62
    1
 10
7534.560778
 20
2888.1304700000001
 11
8034.560778
 21
2888.1304700000001
  0
TEXT
  8
_0-2_LAYER1
 62
    7
 10
7732.060778
 20
2908.1304700000001
 40
140
 41
0.8
 50
0
  1
50
  0
LINE
  8
_0-2_LAYER1
  6
CONTINUOUS
 62
    1
 10
8034.560778
 20
2888.1304700000001
 11
8034.560778
 21
2688.1304700000001
  0
LINE
  8
_0-2_LAYER1
  6
CONTINUOUS
 62
    1
 10
8334.5607779999991
 20
2888.1304700000001
 11
8334.5607779999991
 21
2688.1304700000001
  0
LINE
  8
_0-2_LAYER1
  6
CONTINUOUS
 62
    1
 10
8034.560778
 20
2888.1304700000001
 11
8334.5607779999991
 21
2888.1304700000001
  0
TEXT
  8
_0-2_LAYER1
 62
    7
 10
8132.060778
 20
2908.1304700000001
 40
140
 41
0.8
 50
0
  1
30
  0
LINE
  8
_0-2_LAYER1
  6
CONTINUOUS
 62
    1
 10
8334.5607779999991
 20
2888.1304700000001
 11
8834.5607779999991
 21
2888.1304700000001
  0
TEXT
  8
_0-2_LAYER1
 62
    7
 10
8532.0607779999991
 20
2908.1304700000001
 40
140
 41
0.8
 50
0
  1
50
  0
LINE
  8
_0-2_LAYER1
  6
CONTINUOUS
 62
    1
 10
8834.5607779999991
 20
2888.1304700000001
 11
8834.5607779999991
 21
2688.1304700000001
  0
LINE
  8
_0-2_LAYER1
  6
CONTINUOUS
 62
    1
 10
8834.5607779999991
 20
2888.1304700000001
 11
9134.5607779999991
 21
2888.1304700000001
  0
TEXT
  8
_0-2_LAYER1
 62
    7
 10
8932.0607779999991
 20
2908.1304700000001
 40
140
 41
0.8
 50
0
  1
30
  0
LINE
  8
_0-2_LAYER1
  6
CONTINUOUS
 62
    1
 10
9134.5607779999991
 20
2888.1304700000001
 11
9134.5607779999991
 21
2688.1304700000001
  0
LINE
  8
_0-2_LAYER1
  6
CONTINUOUS
 62
    1
 10
9134.5607779999991
 20
2888.1304700000001
 11
9634.5607779999991
 21
2888.1304700000001
  0
TEXT
  8
_0-2_LAYER1
 62
    7
 10
9332.0607779999991
 20
2908.1304700000001
 40
140
 41
0.8
 50
0
  1
50
  0
LINE
  8
_0-2_LAYER1
  6
CONTINUOUS
 62
    1
 10
9634.5607779999991
 20
2888.1304700000001
 11
9634.5607779999991
 21
2688.1304700000001
  0
LINE
  8
_0-2_LAYER1
  6
CONTINUOUS
 62
    1
 10
9634.5607779999991
 20
2888.1304700000001
 11
9934.5607779999991
 21
2888.1304700000001
  0
TEXT
  8
_0-2_LAYER1
 62
    7
 10
9732.0607779999991
 20
2908.1304700000001
 40
140
 41
0.8
 50
0
  1
30
  0
LINE
  8
_0-2_LAYER1
  6
CONTINUOUS
 62
    1
 10
9934.5607779999991
 20
2888.1304700000001
 11
9934.5607779999991
 21
2688.1304700000001
  0
LINE
  8
_0-2_LAYER1
  6
CONTINUOUS
 62
    1
 10
10434.560777999999
 20
2888.1304700000001
 11
10434.560777999999
 21
2688.1304700000001
  0
LINE
  8
_0-2_LAYER1
  6
CONTINUOUS
 62
    1
 10
9934.5607779999991
 20
2888.1304700000001
 11
10434.560777999999
 21
2888.1304700000001
  0
TEXT
  8
_0-2_LAYER1
 62
    7
 10
10132.060777999999
 20
2908.1304700000001
 40
140
 41
0.8
 50
0
  1
50
  0
LINE
  8
_0-2_LAYER1
  6
CONTINUOUS
 62
    1
 10
10734.560777999999
 20
2888.1304700000001
 11
10734.560777999999
 21
2688.1304700000001
  0
LINE
  8
_0-2_LAYER1
  6
CONTINUOUS
 62
    1
 10
10434.560777999999
 20
2888.1304700000001
 11
10734.560777999999
 21
2888.1304700000001
  0
TEXT
  8
_0-2_LAYER1
 62
    7
 10
10532.060777999999
 20
2908.1304700000001
 40
140
 41
0.8
 50
0
  1
30
  0
LINE
  8
_0-2_LAYER1
  6
CONTINUOUS
 62
    1
 10
11234.560777999999
 20
2888.1304700000001
 11
11234.560777999999
 21
2688.1304700000001
  0
LINE
  8
_0-2_LAYER1
  6
CONTINUOUS
 62
    1
 10
10734.560777999999
 20
2888.1304700000001
 11
11234.560777999999
 21
2888.1304700000001
  0
TEXT
  8
_0-2_LAYER1
 62
    7
 10
10932.060777999999
 20
2908.1304700000001
 40
140
 41
0.8
 50
0
  1
50
  0
LINE
  8
_0-2_LAYER1
  6
CONTINUOUS
 62
    1
 10
11534.560777999999
 20
2888.1304700000001
 11
11534.560777999999
 21
2688.1304700000001
  0
LINE
  8
_0-2_LAYER1
  6
CONTINUOUS
 62
    1
 10
11234.560777999999
 20
2888.1304700000001
 11
11534.560777999999
 21
2888.1304700000001
  0
TEXT
  8
_0-2_LAYER1
 62
    7
 10
11332.060777999999
 20
2908.1304700000001
 40
140
 41
0.8
 50
0
  1
30
  0
LINE
  8
_0-2_LAYER1
  6
CONTINUOUS
 62
    1
 10
12034.560777999999
 20
2888.1304700000001
 11
12034.560777999999
 21
2688.1304700000001
  0
LINE
  8
_0-2_LAYER1
  6
CONTINUOUS
 62
    1
 10
11534.560777999999
 20
2888.1304700000001
 11
12034.560777999999
 21
2888.1304700000001
  0
TEXT
  8
_0-2_LAYER1
 62
    7
 10
11732.060777999999
 20
2908.1304700000001
 40
140
 41
0.8
 50
0
  1
50
  0
LINE
  8
_0-2_LAYER1
  6
CONTINUOUS
 62
    1
 10
12334.560777999999
 20
2888.1304700000001
 11
12334.560777999999
 21
2688.1304700000001
  0
LINE
  8
_0-2_LAYER1
  6
CONTINUOUS
 62
    1
 10
12034.560777999999
 20
2888.1304700000001
 11
12334.560777999999
 21
2888.1304700000001
  0
TEXT
  8
_0-2_LAYER1
 62
    7
 10
12132.060777999999
 20
2908.1304700000001
 40
140
 41
0.8
 50
0
  1
30
  0
LINE
  8
_0-2_LAYER1
  6
CONTINUOUS
 62
    1
 10
12834.560777999999
 20
2888.1304700000001
 11
12834.560777999999
 21
2688.1304700000001
  0
LINE
  8
_0-2_LAYER1
  6
CONTINUOUS
 62
    1
 10
12334.560777999999
 20
2888.1304700000001
 11
12834.560777999999
 21
2888.1304700000001
  0
TEXT
  8
_0-2_LAYER1
 62
    7
 10
12532.060777999999
 20
2908.1304700000001
 40
140
 41
0.8
 50
0
  1
50
  0
LINE
  8
_0-2_LAYER1
  6
CONTINUOUS
 62
    1
 10
13134.560777999999
 20
2888.1304700000001
 11
13134.560777999999
 21
2688.1304700000001
  0
LINE
  8
_0-2_LAYER1
  6
CONTINUOUS
 62
    1
 10
12834.560777999999
 20
2888.1304700000001
 11
13134.560777999999
 21
2888.1304700000001
  0
TEXT
  8
_0-2_LAYER1
 62
    7
 10
12932.060777999999
 20
2908.1304700000001
 40
140
 41
0.8
 50
0
  1
30
  0
LINE
  8
_0-2_LAYER1
  6
CONTINUOUS
 62
    1
 10
13134.560777999999
 20
2888.1304700000001
 11
13634.560777999999
 21
2888.1304700000001
  0
TEXT
  8
_0-2_LAYER1
 62
    7
 10
13332.060777999999
 20
2908.1304700000001
 40
140
 41
0.8
 50
0
  1
50
  0
LINE
  8
_0-2_LAYER1
  6
CONTINUOUS
 62
    1
 10
13634.560777999999
 20
2888.1304700000001
 11
13634.560777999999
 21
2688.1304700000001
  0
LINE
  8
_0-2_LAYER1
  6
CONTINUOUS
 62
    1
 10
13634.560777999999
 20
2888.1304700000001
 11
13934.560777999999
 21
2888.1304700000001
  0
TEXT
  8
_0-2_LAYER1
 62
    7
 10
13732.060777999999
 20
2908.1304700000001
 40
140
 41
0.8
 50
0
  1
30
  0
LINE
  8
_0-2_LAYER1
  6
CONTINUOUS
 62
    1
 10
13934.560777999999
 20
2888.1304700000001
 11
13934.560777999999
 21
2688.1304700000001
  0
LINE
  8
_0-2_LAYER1
  6
CONTINUOUS
 62
    1
 10
14434.560777999999
 20
2888.1304700000001
 11
14434.560777999999
 21
2688.1304700000001
  0
LINE
  8
_0-2_LAYER1
  6
CONTINUOUS
 62
    1
 10
13934.560777999999
 20
2888.1304700000001
 11
14434.560777999999
 21
2888.1304700000001
  0
TEXT
  8
_0-2_LAYER1
 62
    7
 10
14132.060777999999
 20
2908.1304700000001
 40
140
 41
0.8
 50
0
  1
50
  0
LINE
  8
_0-2_LAYER1
  6
CONTINUOUS
 62
    1
 10
14434.560777999999
 20
2888.1304700000001
 11
14734.560777999999
 21
2888.1304700000001
  0
TEXT
  8
_0-2_LAYER1
 62
    7
 10
14532.060777999999
 20
2908.1304700000001
 40
140
 41
0.8
 50
0
  1
30
  0
LINE
  8
_0-2_LAYER1
  6
CONTINUOUS
 62
    1
 10
14734.560777999999
 20
2888.1304700000001
 11
14734.560777999999
 21
2688.1304700000001
  0
LINE
  8
_0-2_LAYER1
  6
CONTINUOUS
 62
    1
 10
14734.560777999999
 20
2888.1304700000001
 11
15234.560777999999
 21
2888.1304700000001
  0
TEXT
  8
_0-2_LAYER1
 62
    7
 10
14932.060777999999
 20
2908.1304700000001
 40
140
 41
0.8
 50
0
  1
50
  0
LINE
  8
_0-2_LAYER1
  6
CONTINUOUS
 62
    1
 10
15234.560777999999
 20
2888.1304700000001
 11
15234.560777999999
 21
2688.1304700000001
  0
LINE
  8
_0-2_LAYER1
  6
CONTINUOUS
 62
    1
 10
15484.560777999999
 20
2888.1304700000001
 11
15484.560777999999
 21
2688.1304700000001
  0
LINE
  8
_0-2_LAYER1
  6
CONTINUOUS
 62
    1
 10
15234.560777999999
 20
2888.1304700000001
 11
15484.560777999999
 21
2888.1304700000001
  0
TEXT
  8
_0-2_LAYER1
 62
    7
 10
15307.060777999999
 20
2908.1304700000001
 40
140
 41
0.8
 50
0
  1
25
  0
LINE
  8
_0-2_LAYER1
  6
CONTINUOUS
 62
    1
 10
15484.560777999999
 20
3088.1304700000001
 11
15484.560777999999
 21
2888.1304700000001
  0
LINE
  8
_0-2_LAYER1
  6
CONTINUOUS
 62
    1
 10
6484.560778
 20
3088.1304700000001
 11
6484.560778
 21
2888.1304700000001
  0
LINE
  8
_0-2_LAYER1
  6
CONTINUOUS
 62
    1
 10
15484.560777999999
 20
3088.1304700000001
 11
6484.560778
 21
3088.1304700000001
  0
TEXT
  8
_0-2_LAYER1
 62
    7
 10
10905.810777999999
 20
3108.1304700000001
 40
140
 41
0.8
 50
0
  1
900
  0
LINE
  8
_0-2_LAYER1
  6
CONTINUOUS
 62
    1
 10
16400
 20
400
 11
16400
 21
11480
  0
LINE
  8
_0-2_LAYER1
  6
CONTINUOUS
 62
    1
 10
16400
 20
11480
 11
400
 21
11480
  0
LINE
  8
_0-2_LAYER1
  6
CONTINUOUS
 62
    1
 10
400
 20
11480
 11
400
 21
400
  0
LINE
  8
_0-2_LAYER1
  6
CONTINUOUS
 62
    1
 10
400
 20
400
 11
16400
 21
400
  0
LINE
  8
_0-2_LAYER1
  6
CONTINUOUS
 62
    1
 10
6545.560778
 20
7349.2877719999997
 11
15345.560777999999
 21
7349.2877719999997
  0
LINE
  8
_0-2_LAYER1
  6
CONTINUOUS
 62
    1
 10
15484.560777999999
 20
1879.1304700000001
 11
6484.560778
 21
1879.1304700000001
  0
TEXT
  8
_0-2_LAYER1
 62
    7
 10
5261.5607780000009
 20
8884.1304700000001
 40
140
 41
0.8
 50
0
  1
水抜き穴5φ
  0
CIRCLE
  8
_0-2_LAYER1
  6
CONTINUOUS
 62
    1
 10
14595.560777999999
 20
9760.1304700000001
 40
25
  0
CIRCLE
  8
_0-2_LAYER1
  6
CONTINUOUS
 62
    1
 10
13795.560777999999
 20
9480.1304700000001
 40
25
  0
CIRCLE
  8
_0-2_LAYER1
  6
CONTINUOUS
 62
    1
 10
12995.560777999999
 20
9760.1304700000001
 40
25
  0
CIRCLE
  8
_0-2_LAYER1
  6
CONTINUOUS
 62
    1
 10
12195.560777999999
 20
9480.1304700000001
 40
25
  0
CIRCLE
  8
_0-2_LAYER1
  6
CONTINUOUS
 62
    1
 10
11395.560777999999
 20
9760.1304700000001
 40
25
  0
CIRCLE
  8
_0-2_LAYER1
  6
CONTINUOUS
 62
    1
 10
10595.560777999999
 20
9480.1304700000001
 40
25
  0
CIRCLE
  8
_0-2_LAYER1
  6
CONTINUOUS
 62
    1
 10
9795.5607779999991
 20
9760.1304700000001
 40
25
  0
CIRCLE
  8
_0-2_LAYER1
  6
CONTINUOUS
 62
    1
 10
8995.5607779999991
 20
9480.1304700000001
 40
25
  0
CIRCLE
  8
_0-2_LAYER1
  6
CONTINUOUS
 62
    1
 10
8195.5607779999991
 20
9760.1304700000001
 40
25
  0
CIRCLE
  8
_0-2_LAYER1
  6
CONTINUOUS
 62
    1
 10
7395.560778
 20
9480.1304700000001
 40
25
  0
LINE
  8
_0-2_LAYER1
  6
CONTINUOUS
 62
    1
 10
7395.560778
 20
9480.1304700000001
 11
5996.5607780000009
 21
8884.1304700000001
  0
LINE
  8
_0-2_LAYER1
  6
CONTINUOUS
 62
    1
 10
5996.5607780000009
 20
8884.1304700000001
 11
5261.5607780000009
 21
8884.1304700000001
  0
TEXT
  8
_0-2_LAYER1
 62
    7
 10
6704.8741629999995
 20
4279.8378709999997
 40
140
 41
0.8
 50
0
  1
２－φ２
  0
CIRCLE
  8
_0-2_LAYER1
  6
CONTINUOUS
 62
    1
 10
4058.5101616045517
 20
7014.1304700000001
 40
10
  0
LINE
  8
_0-2_LAYER1
  6
CONTINUOUS
 62
    3
 10
3492.5101616045513
 20
6797.1304700000001
 11
3822.6482996045506
 21
6928.1513500000001
  0
ARC
  8
_0-2_LAYER1
  6
CONTINUOUS
 62
    3
 10
3821.1727836045516
 20
6931.8692600000013
 40
4
 50
291.64648699999998
 51
0
  0
LINE
  8
_0-2_LAYER1
  6
CONTINUOUS
 62
    3
 10
3493.5101616045517
 20
6794.1304700000001
 11
3945.1569436045515
 21
6974.4096479999998
  0
ARC
  8
_0-2_LAYER1
  6
CONTINUOUS
 62
    3
 10
3943.6740726045518
 20
6978.1246300000003
 40
4
 50
291.75989099999998
 51
359.93360000000001
  0
ARC
  8
_0-2_LAYER1
  6
CONTINUOUS
 62
    3
 10
3821.1727836045516
 20
6933.5339409999997
 40
8
 50
291.75989099999998
 51
0
  0
LINE
  8
_0-2_LAYER1
  6
CONTINUOUS
 62
    3
 10
3494.5101616045522
 20
6789.1304700000001
 11
3946.6356866045521
 21
6969.4143430000004
  0
LINE
  8
_0-2_LAYER1
  6
CONTINUOUS
 62
    3
 10
3494.5101616045522
 20
6789.1304700000001
 11
3492.5101616045513
 21
6797.1304700000001
  0
LINE
  8
_0-2_LAYER1
  6
CONTINUOUS
 62
    3
 10
3825.1727836045511
 20
6974.1304700000001
 11
3825.1727836045511
 21
6972.1304700000001
  0
LINE
  8
_0-2_LAYER1
  6
CONTINUOUS
 62
    3
 10
4626.5101616045513
 20
6797.1304700000001
 11
4295.6972686045519
 21
6928.4191380000002
  0
ARC
  8
_0-2_LAYER1
  6
CONTINUOUS
 62
    3
 10
4297.1727836045511
 20
6932.1370479999996
 40
4
 50
180
 51
248.35351299999999
  0
LINE
  8
_0-2_LAYER1
  6
CONTINUOUS
 62
    3
 10
4625.5101616045513
 20
6794.1304700000001
 11
4173.1899126045519
 21
6974.6784680000001
  0
ARC
  8
_0-2_LAYER1
  6
CONTINUOUS
 62
    3
 10
4297.1727836045511
 20
6933.8032759999996
 40
8
 50
180
 51
248.24010899999999
  0
LINE
  8
_0-2_LAYER1
  6
CONTINUOUS
 62
    3
 10
4624.5101616045513
 20
6789.1304700000001
 11
4171.7221156045507
 21
6968.733244
  0
LINE
  8
_0-2_LAYER1
  6
CONTINUOUS
 62
    3
 10
4293.1727836045511
 20
6974.1304700000001
 11
4293.1727836045511
 21
6972.1304700000001
  0
LINE
  8
_0-2_LAYER1
  6
CONTINUOUS
 62
    3
 10
4626.5101616045513
 20
6797.1304700000001
 11
4624.5101616045513
 21
6789.1304700000001
  0
LINE
  8
_0-2_LAYER1
  6
DASHED
 62
    1
 10
4058.5101616045517
 20
7014.1304700000001
 11
4171.7221156045507
 21
6968.733244
  0
LINE
  8
_0-2_LAYER1
  6
DASHED
 62
    1
 10
4058.5101616045517
 20
7014.1304700000001
 11
3946.6472946045519
 21
6969.3853230000004
  0
LINE
  8
_0-2_LAYER1
  6
DASHED
 62
    3
 10
4171.0101616045522
 20
7218.1304700000001
 11
4171.0101616045522
 21
7410.1304700000001
  0
LINE
  8
_0-2_LAYER1
  6
DASHED
 62
    3
 10
4167.0101616045513
 20
7410.1304700000001
 11
4167.0101616045513
 21
7218.1304700000001
  0
LINE
  8
_0-2_LAYER1
  6
DASHED
 62
    3
 10
3952.0101616045513
 20
7410.1304700000001
 11
3952.0101616045513
 21
7218.1304700000001
  0
LINE
  8
_0-2_LAYER1
  6
DASHED
 62
    3
 10
3948.0101616045517
 20
7218.1304700000001
 11
3948.0101616045517
 21
7410.1304700000001
  0
LINE
  8
_0-2_LAYER1
  6
CONTINUOUS
 62
    3
 10
3952.0101616045513
 20
7218.1304700000001
 11
3951.6725816045509
 21
6976.8360910000001
  0
ARC
  8
_0-2_LAYER1
  6
CONTINUOUS
 62
    3
 10
3943.6725876045512
 20
6976.845362
 40
8
 50
291.73951299999999
 51
359.93359999999996
  0
LINE
  8
_0-2_LAYER1
  6
CONTINUOUS
 62
    3
 10
4285.5101616045513
 20
7619.1304700000001
 11
4285.5101616045513
 21
7426.1304700000001
  0
LINE
  8
_0-2_LAYER1
  6
CONTINUOUS
 62
    3
 10
3833.5101616045517
 20
7619.1304700000001
 11
3833.5101616045517
 21
7426.1304700000001
  0
LINE
  8
_0-2_LAYER1
  6
CONTINUOUS
 62
    3
 10
3829.5101616045513
 20
7619.1304700000001
 11
3833.5101616045517
 21
7619.1304700000001
  0
LINE
  8
_0-2_LAYER1
  6
CONTINUOUS
 62
    3
 10
4285.5101616045513
 20
7619.1304700000001
 11
4289.5101616045513
 21
7619.1304700000001
  0
LINE
  8
_0-2_LAYER1
  6
CONTINUOUS
 62
    3
 10
3825.5101616045517
 20
7615.1304700000001
 11
3829.5101616045513
 21
7615.1304700000001
  0
LINE
  8
_0-2_LAYER1
  6
CONTINUOUS
 62
    3
 10
4289.5101616045513
 20
7615.1304700000001
 11
4293.5101616045522
 21
7615.1304700000001
  0
LINE
  8
_0-2_LAYER1
  6
CONTINUOUS
 62
    3
 10
4281.5101616045513
 20
7418.1304700000001
 11
3837.5101616045513
 21
7418.1304700000001
  0
LINE
  8
_0-2_LAYER1
  6
CONTINUOUS
 62
    3
 10
4281.5101616045513
 20
7422.1304700000001
 11
3837.5101616045513
 21
7422.1304700000001
  0
LINE
  8
_0-2_LAYER1
  6
CONTINUOUS
 62
    3
 10
4289.5101616045513
 20
7619.1304700000001
 11
4289.5101616045513
 21
7426.1304700000001
  0
LINE
  8
_0-2_LAYER1
  6
CONTINUOUS
 62
    3
 10
3829.5101616045513
 20
7619.1304700000001
 11
3829.5101616045513
 21
7426.1304700000001
  0
LINE
  8
_0-2_LAYER1
  6
CONTINUOUS
 62
    3
 10
4293.5101616045522
 20
7615.1304700000001
 11
4293.5101616045522
 21
7426.1304700000001
  0
LINE
  8
_0-2_LAYER1
  6
CONTINUOUS
 62
    3
 10
3825.5101616045517
 20
7615.1304700000001
 11
3825.5101616045517
 21
7426.1304700000001
  0
ARC
  8
_0-2_LAYER1
  6
CONTINUOUS
 62
    3
 10
3837.5101616045513
 20
7426.1304700000001
 40
12
 50
180
 51
270
  0
LINE
  8
_0-2_LAYER1
  6
CONTINUOUS
 62
    3
 10
4167.0101616045513
 20
7218.1304700000001
 11
4166.6718206045516
 21
6976.1788630000001
  0
ARC
  8
_0-2_LAYER1
  6
CONTINUOUS
 62
    3
 10
4174.6718146045514
 20
6976.1695920000002
 40
8
 50
179.93360000000001
 51
248.36376699999997
  0
LINE
  8
_0-2_LAYER1
  6
CONTINUOUS
 62
    3
 10
4170.6727836045511
 20
7132.8169879999996
 11
4170.6727836045511
 21
6978.3934509999999
  0
ARC
  8
_0-2_LAYER1
  6
CONTINUOUS
 62
    3
 10
4174.6727836045511
 20
6978.3934509999999
 40
4
 50
180
 51
248.24010899999999
  0
ARC
  8
_0-2_LAYER1
  6
CONTINUOUS
 62
    3
 10
4174.6727836045511
 20
6978.3934509999999
 40
4
 50
180
 51
248.24010899999999
  0
LINE
  8
_0-2_LAYER1
  6
CONTINUOUS
 62
    3
 10
4170.6727836045511
 20
7132.8169879999996
 11
4171.0101616045522
 21
7218.1304700000001
  0
LINE
  8
_0-2_LAYER1
  6
CONTINUOUS
 62
    3
 10
3948.0101616045517
 20
7218.1304700000001
 11
3947.6740696045508
 21
6978.1199939999997
  0
LINE
  8
_0-2_LAYER1
  6
CONTINUOUS
 62
    3
 10
3829.5101616045513
 20
7343.2793990000009
 11
3829.1727836045516
 21
7133.8692600000004
  0
ARC
  8
_0-2_LAYER1
  6
CONTINUOUS
 62
    3
 10
3833.5101616045517
 20
7343.2793990000009
 40
4
 50
132.997467
 51
180
  0
LINE
  8
_0-2_LAYER1
  6
CONTINUOUS
 62
    3
 10
4293.1727836045511
 20
7133.8692600000004
 11
4293.5101616045522
 21
7343.2745409999998
  0
LINE
  8
_0-2_LAYER1
  6
CONTINUOUS
 62
    3
 10
3825.5101616045517
 20
7343.2793990000009
 11
3825.1727836045511
 21
7133.8692600000004
  0
ARC
  8
_0-2_LAYER1
  6
CONTINUOUS
 62
    3
 10
3833.5101616045517
 20
7343.2793990000009
 40
8
 50
132.997467
 51
180
  0
LINE
  8
_0-2_LAYER1
  6
CONTINUOUS
 62
    3
 10
4163.0101616045513
 20
7414.1304700000001
 11
3956.0101616045517
 21
7414.1304700000001
  0
ARC
  8
_0-2_LAYER1
  6
CONTINUOUS
 62
    3
 10
4281.5101616045513
 20
7426.1304700000001
 40
4
 50
270
 51
0
  0
ARC
  8
_0-2_LAYER1
  6
CONTINUOUS
 62
    3
 10
4281.5101616045513
 20
7426.1304700000001
 40
8
 50
270
 51
0
  0
LINE
  8
_0-2_LAYER1
  6
CONTINUOUS
 62
    3
 10
4269.5101616045513
 20
7418.1304700000001
 11
4253.5101616045522
 21
7418.1304700000001
  0
ARC
  8
_0-2_LAYER1
  6
CONTINUOUS
 62
    3
 10
4163.0101616045513
 20
7410.1304700000001
 40
4
 50
0
 51
90
  0
ARC
  8
_0-2_LAYER1
  6
CONTINUOUS
 62
    3
 10
3956.0101616045517
 20
7410.1304700000001
 40
4
 50
90
 51
180
  0
LINE
  8
_0-2_LAYER1
  6
CONTINUOUS
 62
    3
 10
4163.0101616045513
 20
7418.1304700000001
 11
3956.0101616045517
 21
7418.1304700000001
  0
ARC
  8
_0-2_LAYER1
  6
CONTINUOUS
 62
    3
 10
4163.0101616045513
 20
7410.1304700000001
 40
8
 50
0
 51
90
  0
ARC
  8
_0-2_LAYER1
  6
CONTINUOUS
 62
    3
 10
3956.0101616045517
 20
7410.1304700000001
 40
8
 50
90
 51
180
  0
ARC
  8
_0-2_LAYER1
  6
CONTINUOUS
 62
    3
 10
3837.5101616045513
 20
7426.1304700000001
 40
8
 50
180
 51
270
  0
ARC
  8
_0-2_LAYER1
  6
CONTINUOUS
 62
    3
 10
3837.5101616045513
 20
7426.1304700000001
 40
4
 50
180
 51
270
  0
LINE
  8
_0-2_LAYER1
  6
CONTINUOUS
 62
    3
 10
3855.5101616045517
 20
7418.1304700000001
 11
3885.0650566045515
 21
7418.1304700000001
  0
LINE
  8
_0-2_LAYER1
  6
CONTINUOUS
 62
    3
 10
4289.5101616045513
 20
7343.276969999999
 11
4289.172783604552
 21
7133.8692600000004
  0
LINE
  8
_0-2_LAYER1
  6
DASHED
 62
    3
 10
4293.1727836045511
 20
7133.8692600000004
 11
4293.1727836045511
 21
6932.1370479999996
  0
LINE
  8
_0-2_LAYER1
  6
DASHED
 62
    3
 10
4289.172783604552
 20
6933.8032759999996
 11
4289.172783604552
 21
7133.8692600000004
  0
LINE
  8
_0-2_LAYER1
  6
DASHED
 62
    3
 10
3829.1727836045516
 20
6933.5339409999997
 11
3829.1727836045516
 21
7133.8692600000004
  0
LINE
  8
_0-2_LAYER1
  6
DASHED
 62
    3
 10
3825.1727836045511
 20
7133.8692600000004
 11
3825.1727836045511
 21
6931.8692600000013
  0
LINE
  8
_0-2_LAYER1
  6
CONTINUOUS
 62
    3
 10
4259.5101616045513
 20
7422.1304700000001
 11
3859.5101616045513
 21
7422.1304700000001
  0
LINE
  8
_0-2_LAYER1
  6
CONTINUOUS
 62
    1
 10
5256.1768286045526
 20
7619.1304700000001
 11
4545.5306326045511
 21
7619.1304700000001
  0
LINE
  8
_0-2_LAYER1
  6
CONTINUOUS
 62
    1
 10
5256.1768286045526
 20
7414.1304700000001
 11
5256.1768286045526
 21
7619.1304700000001
  0
TEXT
  8
_0-2_LAYER1
 62
    7
 10
5236.1768286045526
 20
7411.6304700000001
 40
140
 41
0.8
 50
90
  1
22.5
  0
LINE
  8
_0-2_LAYER1
  6
CONTINUOUS
 62
    3
 10
3891.5101616045513
 20
7414.1304700000001
 11
3837.5101616045513
 21
7414.1304700000001
  0
LINE
  8
_0-2_LAYER1
  6
CONTINUOUS
 62
    3
 10
3894.2380256045508
 20
7407.2049349999998
 11
3828.0544336045518
 21
7349.1304700000001
  0
ARC
  8
_0-2_LAYER1
  6
CONTINUOUS
 62
    3
 10
3891.5101616045513
 20
7410.1304700000001
 40
4
 50
312.99746699999997
 51
89.999999999999972
  0
LINE
  8
_0-2_LAYER1
  6
CONTINUOUS
 62
    3
 10
3896.9658896045512
 20
7404.2793989999991
 11
3830.7822976045518
 21
7346.2049349999998
  0
ARC
  8
_0-2_LAYER1
  6
CONTINUOUS
 62
    3
 10
3891.5101616045513
 20
7410.1304700000001
 40
8
 50
312.99746699999997
 51
89.999999999999972
  0
LINE
  8
_0-2_LAYER1
  6
CONTINUOUS
 62
    3
 10
3885.0650566045515
 20
7418.1304700000001
 11
3837.5101616045513
 21
7418.1304700000001
  0
LINE
  8
_0-2_LAYER1
  6
CONTINUOUS
 62
    3
 10
4222.0544336045514
 20
7404.2793989999991
 11
4288.1483926045512
 21
7346.2835859999996
  0
ARC
  8
_0-2_LAYER1
  6
CONTINUOUS
 62
    3
 10
4285.5101616045513
 20
7343.276969999999
 40
4
 50
0
 51
48.733848999999999
  0
ARC
  8
_0-2_LAYER1
  6
CONTINUOUS
 62
    3
 10
4227.5101616045513
 20
7410.1304700000001
 40
8
 50
90
 51
227.002533
  0
LINE
  8
_0-2_LAYER1
  6
CONTINUOUS
 62
    3
 10
4224.7822976045518
 20
7407.2049349999998
 11
4290.786623604552
 21
7349.2877719999997
  0
ARC
  8
_0-2_LAYER1
  6
CONTINUOUS
 62
    3
 10
4285.5101616045513
 20
7343.2745409999998
 40
8
 50
0
 51
48.733849000000021
  0
ARC
  8
_0-2_LAYER1
  6
CONTINUOUS
 62
    3
 10
4227.5101616045513
 20
7410.1304700000001
 40
4
 50
90
 51
227.002533
  0
ARC
  8
_0-2_LAYER1
  6
CONTINUOUS
 62
    3
 10
4285.5101616045513
 20
7343.2793990000009
 40
4
 50
0
 51
47.002533
  0
ARC
  8
_0-2_LAYER1
  6
CONTINUOUS
 62
    3
 10
4285.5101616045513
 20
7343.2793990000009
 40
8
 50
0
 51
47.002533
  0
LINE
  8
_0-2_LAYER1
  6
CONTINUOUS
 62
    3
 10
4227.5101616045513
 20
7414.1304700000001
 11
4281.5101616045513
 21
7414.1304700000001
  0
ARC
  8
_0-2_LAYER1
  6
CONTINUOUS
 62
    3
 10
4281.5101616045513
 20
7426.1304700000001
 40
12
 50
270
 51
0
  0
LINE
  8
_0-2_LAYER1
  6
CONTINUOUS
 62
    1
 10
5256.1768286045526
 20
7414.1304700000001
 11
4545.5306326045511
 21
7414.1304700000001
  0
LINE
  8
_0-2_LAYER1
  6
CONTINUOUS
 62
    1
 10
4394.0794326045507
 20
7186.3952470000004
 11
4320.3036726045511
 21
7000.4997460000004
  0
LINE
  8
_0-2_LAYER1
  6
CONTINUOUS
 62
    1
 10
4728.3480386045521
 20
7053.7351209999997
 11
4654.5722786045517
 21
6867.8396199999997
  0
LINE
  8
_0-2_LAYER1
  6
CONTINUOUS
 62
    1
 10
4394.0794326045507
 20
7186.3952470000004
 11
4728.3480386045521
 21
7053.7351209999997
  0
TEXT
  8
_0-2_LAYER1
 62
    7
 10
4519.7937476045518
 20
7158.0208830000001
 40
140
 41
0.8
 50
-21.646500000000035
  1
40
  0
LINE
  8
_0-2_LAYER1
  6
CONTINUOUS
 62
    1
 10
3947.0101616045513
 20
6466.6457620000001
 11
3947.0101616045513
 21
6666.6457620000001
  0
LINE
  8
_0-2_LAYER1
  6
CONTINUOUS
 62
    1
 10
4170.0101616045513
 20
6466.6457620000001
 11
4170.0101616045513
 21
6666.6457620000001
  0
LINE
  8
_0-2_LAYER1
  6
CONTINUOUS
 62
    1
 10
3947.0101616045513
 20
6466.6457620000001
 11
4170.0101616045513
 21
6466.6457620000001
  0
TEXT
  8
_0-2_LAYER1
 62
    7
 10
3953.5101616045517
 20
6486.6457620000001
 40
140
 41
0.8
 50
0
  1
22.3
  0
LINE
  8
_0-2_LAYER1
  6
CONTINUOUS
 62
    1
 10
3824.5101616045513
 20
6266.6457620000001
 11
3824.5101616045513
 21
6666.6457620000001
  0
LINE
  8
_0-2_LAYER1
  6
CONTINUOUS
 62
    1
 10
4292.5101616045513
 20
6266.6457620000001
 11
4292.5101616045513
 21
6666.6457620000001
  0
LINE
  8
_0-2_LAYER1
  6
CONTINUOUS
 62
    1
 10
3824.5101616045513
 20
6266.6457620000001
 11
4292.5101616045513
 21
6266.6457620000001
  0
TEXT
  8
_0-2_LAYER1
 62
    7
 10
4006.0101616045517
 20
6286.6457620000001
 40
140
 41
0.8
 50
0
  1
46
  0
LINE
  8
_0-2_LAYER1
  6
CONTINUOUS
 62
    1
 10
3493.8625696045519
 20
6066.6457620000001
 11
3493.8625696045519
 21
6666.6457620000001
  0
LINE
  8
_0-2_LAYER1
  6
CONTINUOUS
 62
    1
 10
4623.1577536045515
 20
6066.6457620000001
 11
4623.1577536045515
 21
6666.6457620000001
  0
LINE
  8
_0-2_LAYER1
  6
CONTINUOUS
 62
    1
 10
3493.8625696045519
 20
6066.6457620000001
 11
4623.1577536045515
 21
6066.6457620000001
  0
TEXT
  8
_0-2_LAYER1
 62
    7
 10
3927.2601616045517
 20
6086.6457620000001
 40
140
 41
0.8
 50
0
  1
117.4
  0
LINE
  8
_0-2_LAYER1
  6
CONTINUOUS
 62
    1
 10
3835.5101616045517
 20
7874.9570030000004
 11
3835.5101616045517
 21
7714.4634800000003
  0
LINE
  8
_0-2_LAYER1
  6
CONTINUOUS
 62
    1
 10
4283.5101616045522
 20
7874.9570030000004
 11
4283.5101616045522
 21
7714.4634800000003
  0
LINE
  8
_0-2_LAYER1
  6
CONTINUOUS
 62
    1
 10
3835.5101616045517
 20
7874.9570030000004
 11
4283.5101616045522
 21
7874.9570030000004
  0
TEXT
  8
_0-2_LAYER1
 62
    7
 10
4007.0101616045513
 20
7894.9570030000004
 40
140
 41
0.8
 50
0
  1
44
  0
LINE
  8
_0-2_LAYER1
  6
CONTINUOUS
 62
    1
 10
5255.9052926045524
 20
7013.2881509999988
 11
4126.1994026045513
 21
7014.0828529999999
  0
LINE
  8
_0-2_LAYER1
  6
CONTINUOUS
 62
    1
 10
5256.2220906045513
 20
7413.6305270000003
 11
5056.222140604551
 21
7413.7712190000002
  0
LINE
  8
_0-2_LAYER1
  6
CONTINUOUS
 62
    1
 10
5255.9052926045524
 20
7013.2881509999988
 11
5256.2220906045513
 21
7413.6305270000003
  0
TEXT
  8
_0-2_LAYER1
 62
    7
 10
5236.0221896045514
 20
7160.9751820000001
 40
140
 41
0.8
 50
89.954700000000003
  1
40
  0
LINE
  8
_0-2_LAYER1
  6
CONTINUOUS
 62
    3
 10
3988.5101616045517
 20
3949.0156613477538
 11
3988.5101616045517
 21
4749.0156613477538
  0
LINE
  8
_0-2_LAYER1
  6
CONTINUOUS
 62
    3
 10
3988.5101616045517
 20
4749.0156613477538
 11
4128.5101616045522
 21
4749.0156613477538
  0
LINE
  8
_0-2_LAYER1
  6
CONTINUOUS
 62
    3
 10
4128.5101616045522
 20
4749.0156613477538
 11
4128.5101616045522
 21
3949.0156613477538
  0
LINE
  8
_0-2_LAYER1
  6
CONTINUOUS
 62
    3
 10
4008.5101616045517
 20
3949.0156613477538
 11
4008.5101616045517
 21
4749.0156613477538
  0
LINE
  8
_0-2_LAYER1
  6
DASHED
 62
    3
 10
4108.5101616045522
 20
4749.0156613477538
 11
4108.5101616045522
 21
3949.0156613477538
  0
LINE
  8
_0-2_LAYER1
  6
CONTINUOUS
 62
    3
 10
4128.5101616045522
 20
4964.0156613477538
 11
4128.5101616045522
 21
4749.0156613477538
  0
LINE
  8
_0-2_LAYER1
  6
CONTINUOUS
 62
    3
 10
4108.5101616045522
 20
4979.0156613477538
 11
4108.5101616045522
 21
4978.0156613477538
  0
LINE
  8
_0-2_LAYER1
  6
CONTINUOUS
 62
    3
 10
4108.5101616045522
 20
4978.0156613477538
 11
4108.5101616045522
 21
4976.0156613477538
  0
LINE
  8
_0-2_LAYER1
  6
CONTINUOUS
 62
    3
 10
4108.5101616045522
 20
4976.0156613477538
 11
4108.5101616045522
 21
4954.0156613477538
  0
LINE
  8
_0-2_LAYER1
  6
CONTINUOUS
 62
    3
 10
4108.5101616045522
 20
4954.0156613477538
 11
4108.5101616045522
 21
4879.0156613477538
  0
LINE
  8
_0-2_LAYER1
  6
CONTINUOUS
 62
    3
 10
4108.5101616045522
 20
4879.0156613477538
 11
4108.5101616045522
 21
4749.0156613477538
  0
LINE
  8
_0-2_LAYER1
  6
CONTINUOUS
 62
    3
 10
4108.5101616045522
 20
4954.0156613477538
 11
4008.5101616045517
 21
4954.0156613477538
  0
LINE
  8
_0-2_LAYER1
  6
CONTINUOUS
 62
    3
 10
4008.5101616045517
 20
4749.0156613477538
 11
4008.5101616045517
 21
4954.0156613477538
  0
LINE
  8
_0-2_LAYER1
  6
CONTINUOUS
 62
    3
 10
4128.5101616045522
 20
4964.0156613477538
 11
4113.5101616045522
 21
4979.0156613477538
  0
LINE
  8
_0-2_LAYER1
  6
CONTINUOUS
 62
    1
 10
4108.5101616045522
 20
4979.0156613477538
 11
4113.5101616045522
 21
4979.0156613477538
  0
TEXT
  8
_0-2_LAYER1
 62
    7
 10
3632.3210046045515
 20
5091.3129243477542
 40
140
 41
0.8
 50
0
  1
C0.5
  0
LINE
  8
_0-2_LAYER1
  6
CONTINUOUS
 62
    1
 10
3853.5101616045517
 20
4803.0156613477538
 11
4108.5101616045522
 21
4976.0156613477538
  0
LINE
  8
_0-2_LAYER1
  6
CONTINUOUS
 62
    1
 10
4108.5101616045522
 20
4976.0156613477538
 11
4113.5101616045522
 21
4979.0156613477538
  0
LINE
  8
_0-2_LAYER1
  6
CONTINUOUS
 62
    1
 10
4113.5101616045522
 20
4979.0156613477538
 11
4108.5101616045522
 21
4978.0156613477538
  0
LINE
  8
_0-2_LAYER1
  6
CONTINUOUS
 62
    1
 10
4108.5101616045522
 20
4978.0156613477538
 11
4031.5101616045517
 21
4961.0156613477538
  0
TEXT
  8
_0-2_LAYER1
 62
    7
 10
3621.104793604552
 20
4734.2048183477536
 40
140
 41
0.8
 50
0
  1
R0.5
  0
LINE
  8
_0-2_LAYER1
  6
CONTINUOUS
 62
    3
 10
4082.5101616045513
 20
5108.0156613477538
 11
4064.5101616045513
 21
5101.0156613477538
  0
LINE
  8
_0-2_LAYER1
  6
CONTINUOUS
 62
    3
 10
4082.5101616045513
 20
5108.0156613477538
 11
4122.5101616045513
 21
5000.0156613477538
  0
LINE
  8
_0-2_LAYER1
  6
CONTINUOUS
 62
    3
 10
4064.5101616045513
 20
5101.0156613477538
 11
4076.5101616045517
 21
5068.0156613477538
  0
LINE
  8
_0-2_LAYER1
  6
CONTINUOUS
 62
    3
 10
4076.5101616045517
 20
5068.0156613477538
 11
4081.5101616045517
 21
5054.0156613477538
  0
LINE
  8
_0-2_LAYER1
  6
CONTINUOUS
 62
    3
 10
4081.5101616045517
 20
5054.0156613477538
 11
4086.5101616045517
 21
5040.0156613477538
  0
LINE
  8
_0-2_LAYER1
  6
CONTINUOUS
 62
    3
 10
4086.5101616045517
 20
5040.0156613477538
 11
4091.5101616045517
 21
5026.0156613477538
  0
LINE
  8
_0-2_LAYER1
  6
CONTINUOUS
 62
    3
 10
4091.5101616045517
 20
5026.0156613477538
 11
4108.5101616045522
 21
4979.0156613477538
  0
LINE
  8
_0-2_LAYER1
  6
CONTINUOUS
 62
    3
 10
4081.5101616045517
 20
5054.0156613477538
 11
4095.5101616045517
 21
5059.0156613477538
  0
LINE
  8
_0-2_LAYER1
  6
CONTINUOUS
 62
    3
 10
4091.5101616045517
 20
5026.0156613477538
 11
4105.5101616045513
 21
5031.0156613477538
  0
LINE
  8
_0-2_LAYER1
  6
CONTINUOUS
 62
    3
 10
4095.5101616045517
 20
5059.0156613477538
 11
4098.5101616045522
 21
5066.0156613477538
  0
LINE
  8
_0-2_LAYER1
  6
CONTINUOUS
 62
    3
 10
4111.5101616045522
 20
5028.0156613477538
 11
4105.5101616045513
 21
5031.0156613477538
  0
LINE
  8
_0-2_LAYER1
  6
CONTINUOUS
 62
    3
 10
4122.5101616045513
 20
5000.0156613477538
 11
4113.5101616045522
 21
4979.0156613477538
  0
LINE
  8
_0-2_LAYER1
  6
CONTINUOUS
 62
    1
 10
3870.5101616045517
 20
5154.0156613477538
 11
4101.5101616045522
 21
5048.0156613477538
  0
LINE
  8
_0-2_LAYER1
  6
CONTINUOUS
 62
    1
 10
4101.5101616045522
 20
5048.0156613477538
 11
4034.5101616045513
 21
5105.0156613477538
  0
LINE
  8
_0-2_LAYER1
  6
CONTINUOUS
 62
    1
 10
4005.3349786045515
 20
5306.4974133477535
 11
4092.8819346045516
 21
5065.7432863477534
  0
LINE
  8
_0-2_LAYER1
  6
CONTINUOUS
 62
    1
 10
4009.9909016045517
 20
5308.1904763477542
 11
4078.3395136045515
 21
5120.2317913477527
  0
LINE
  8
_0-2_LAYER1
  6
CONTINUOUS
 62
    1
 10
4005.3349786045515
 20
5306.4974133477535
 11
4009.9909016045517
 21
5308.1904763477542
  0
TEXT
  8
_0-2_LAYER1
 62
    7
 10
4021.9519086045516
 20
5333.8212053477537
 40
140
 41
0.8
 50
19.983100000000029
  1
0.5
  0
LINE
  8
_0-2_LAYER1
  6
CONTINUOUS
 62
    1
 10
3925.6750866045518
 20
5482.5600203477534
 11
4059.3168656045514
 21
5113.3462923477537
  0
LINE
  8
_0-2_LAYER1
  6
CONTINUOUS
 62
    1
 10
3944.5638956045518
 20
5489.3970743477539
 11
4012.6345256045515
 21
5301.3375373477538
  0
LINE
  8
_0-2_LAYER1
  6
CONTINUOUS
 62
    1
 10
3925.6750866045518
 20
5482.5600203477534
 11
3944.5638956045518
 21
5489.3970743477539
  0
TEXT
  8
_0-2_LAYER1
 62
    7
 10
3903.629615604551
 20
5495.8502273477534
 40
140
 41
0.8
 50
19.898400000000109
  1
2
  0
LINE
  8
_0-2_LAYER1
  6
CONTINUOUS
 62
    1
 10
4330.5101616045513
 20
5144.0156613477538
 11
4142.756426604552
 21
5075.1060463477534
  0
LINE
  8
_0-2_LAYER1
  6
CONTINUOUS
 62
    1
 10
4341.0003776045514
 20
5115.4336233477534
 11
4153.2466426045521
 21
5046.5240073477535
  0
LINE
  8
_0-2_LAYER1
  6
CONTINUOUS
 62
    1
 10
4330.5101616045513
 20
5144.0156613477538
 11
4341.0003776045514
 21
5115.4336233477534
  0
TEXT
  8
_0-2_LAYER1
 62
    7
 10
4309.3087316045521
 20
5259.8290013477535
 40
140
 41
0.8
 50
-69.845799999999997
  1
3-φ3
  0
LINE
  8
_0-2_LAYER1
  6
CONTINUOUS
 62
    1
 10
4108.5101616045522
 20
4760.077831347754
 11
4108.5101616045522
 21
4960.077831347754
  0
LINE
  8
_0-2_LAYER1
  6
CONTINUOUS
 62
    1
 10
4113.5101616045522
 20
4760.077831347754
 11
4113.5101616045522
 21
4960.077831347754
  0
LINE
  8
_0-2_LAYER1
  6
CONTINUOUS
 62
    1
 10
4108.5101616045522
 20
4760.077831347754
 11
4113.5101616045522
 21
4760.077831347754
  0
TEXT
  8
_0-2_LAYER1
 62
    7
 10
4133.5101616045522
 20
4780.077831347754
 40
140
 41
0.8
 50
0
  1
0.5
  0
LINE
  8
_0-2_LAYER1
  6
CONTINUOUS
 62
    1
 10
4538.5101616045522
 20
3949.0156613477538
 11
4338.5101616045522
 21
3949.0156613477538
  0
LINE
  8
_0-2_LAYER1
  6
CONTINUOUS
 62
    1
 10
4538.5101616045522
 20
4979.0156613477538
 11
4338.5101616045522
 21
4979.0156613477538
  0
LINE
  8
_0-2_LAYER1
  6
CONTINUOUS
 62
    1
 10
4538.5101616045522
 20
3949.0156613477538
 11
4538.5101616045522
 21
4979.0156613477538
  0
TEXT
  8
_0-2_LAYER1
 62
    7
 10
4518.5101616045522
 20
4385.2656613477538
 40
140
 41
0.8
 50
90
  1
103
  0
LINE
  8
_0-2_LAYER1
  6
CONTINUOUS
 62
    1
 10
4108.5101616045522
 20
3694.0156613477538
 11
4108.5101616045522
 21
3894.0156613477538
  0
LINE
  8
_0-2_LAYER1
  6
CONTINUOUS
 62
    1
 10
4128.5101616045522
 20
3694.0156613477538
 11
4128.5101616045522
 21
3894.0156613477538
  0
LINE
  8
_0-2_LAYER1
  6
CONTINUOUS
 62
    1
 10
4108.5101616045522
 20
3694.0156613477538
 11
4128.5101616045522
 21
3694.0156613477538
  0
TEXT
  8
_0-2_LAYER1
 62
    7
 10
4148.5101616045522
 20
3714.0156613477538
 40
140
 41
0.8
 50
0
  1
2
  0
LINE
  8
_0-2_LAYER1
  6
CONTINUOUS
 62
    1
 10
3988.5101616045517
 20
3494.0156613477538
 11
3988.5101616045517
 21
3894.0156613477538
  0
LINE
  8
_0-2_LAYER1
  6
CONTINUOUS
 62
    1
 10
4008.5101616045517
 20
3494.0156613477538
 11
4008.5101616045517
 21
3894.0156613477538
  0
LINE
  8
_0-2_LAYER1
  6
CONTINUOUS
 62
    1
 10
3988.5101616045517
 20
3494.0156613477538
 11
4008.5101616045517
 21
3494.0156613477538
  0
TEXT
  8
_0-2_LAYER1
 62
    7
 10
3916.0101616045517
 20
3514.0156613477538
 40
140
 41
0.8
 50
0
  1
2
  0
LINE
  8
_0-2_LAYER1
  6
CONTINUOUS
 62
    1
 10
4008.5101616045517
 20
3494.0156613477538
 11
4008.5101616045517
 21
3694.0156613477538
  0
LINE
  8
_0-2_LAYER1
  6
CONTINUOUS
 62
    1
 10
4128.5101616045522
 20
3494.0156613477538
 11
4128.5101616045522
 21
3694.0156613477538
  0
LINE
  8
_0-2_LAYER1
  6
CONTINUOUS
 62
    1
 10
4008.5101616045517
 20
3494.0156613477538
 11
4128.5101616045522
 21
3494.0156613477538
  0
TEXT
  8
_0-2_LAYER1
 62
    7
 10
4016.0101616045517
 20
3514.0156613477538
 40
140
 41
0.8
 50
0
  1
12
  0
LINE
  8
_0-2_LAYER1
  6
CONTINUOUS
 62
    1
 10
3988.5101616045517
 20
3294.0156613477538
 11
3988.5101616045517
 21
3494.0156613477538
  0
LINE
  8
_0-2_LAYER1
  6
CONTINUOUS
 62
    1
 10
4128.5101616045522
 20
3294.0156613477538
 11
4128.5101616045522
 21
3494.0156613477538
  0
LINE
  8
_0-2_LAYER1
  6
CONTINUOUS
 62
    1
 10
3988.5101616045517
 20
3294.0156613477538
 11
4128.5101616045522
 21
3294.0156613477538
  0
TEXT
  8
_0-2_LAYER1
 62
    7
 10
4006.0101616045517
 20
3314.0156613477538
 40
140
 41
0.8
 50
0
  1
14
  0
LINE
  8
_0-2_LAYER1
  6
CONTINUOUS
 62
    3
 10
3967.0101616045522
 20
1879.1304700000001
 11
4152.0101616045522
 21
1979.1304700000001
  0
LINE
  8
_0-2_LAYER1
  6
CONTINUOUS
 62
    3
 10
4159.0101616045522
 20
1349.1304700000001
 11
4085.0101616045513
 21
1349.1304700000001
  0
LINE
  8
_0-2_LAYER1
  6
CONTINUOUS
 62
    3
 10
3960.0101616045513
 20
1871.1304700000001
 11
4078.0101616045517
 21
1355.1304700000003
  0
ARC
  8
_0-2_LAYER1
  6
CONTINUOUS
 62
    3
 10
4085.0101616045513
 20
1356.1304700000001
 40
7
 50
188.53999999999999
 51
270
  0
ARC
  8
_0-2_LAYER1
  6
CONTINUOUS
 62
    3
 10
3967.0101616045522
 20
1872.1304700000001
 40
7
 50
90
 51
188.53
  0
LINE
  8
_0-2_LAYER1
  6
CONTINUOUS
 62
    3
 10
4159.0101616045522
 20
1899.1304700000001
 11
4159.0101616045522
 21
1972.1304700000001
  0
ARC
  8
_0-2_LAYER1
  6
CONTINUOUS
 62
    3
 10
4152.0101616045522
 20
1972.1304700000001
 40
7
 50
0
 51
90
  0
LINE
  8
_0-2_LAYER1
  6
CONTINUOUS
 62
    3
 10
4159.0101616045522
 20
1351.1304700000001
 11
4085.0101616045513
 21
1351.1304700000001
  0
LINE
  8
_0-2_LAYER1
  6
CONTINUOUS
 62
    3
 10
3962.0101616045522
 20
1871.1304700000001
 11
4080.0101616045513
 21
1355.1304700000003
  0
ARC
  8
_0-2_LAYER1
  6
CONTINUOUS
 62
    3
 10
4085.0101616045513
 20
1356.1304700000001
 40
5
 50
188.56999999999999
 51
270
  0
LINE
  8
_0-2_LAYER1
  6
CONTINUOUS
 62
    3
 10
3967.0101616045522
 20
1877.1304700000001
 11
4152.0101616045522
 21
1977.1304700000001
  0
ARC
  8
_0-2_LAYER1
  6
CONTINUOUS
 62
    3
 10
3967.0101616045522
 20
1872.1304700000001
 40
5
 50
90
 51
188.56999999999996
  0
LINE
  8
_0-2_LAYER1
  6
CONTINUOUS
 62
    3
 10
4157.0101616045522
 20
1899.1304700000001
 11
4157.0101616045522
 21
1972.1304700000001
  0
ARC
  8
_0-2_LAYER1
  6
CONTINUOUS
 62
    3
 10
4152.0101616045522
 20
1972.1304700000001
 40
5
 50
0
 51
90
  0
LINE
  8
_0-2_LAYER1
  6
CONTINUOUS
 62
    3
 10
4159.0101616045522
 20
1351.1304700000001
 11
4159.0101616045522
 21
1349.1304700000001
  0
LINE
  8
_0-2_LAYER1
  6
CONTINUOUS
 62
    3
 10
4157.0101616045522
 20
1899.1304700000001
 11
4159.0101616045522
 21
1899.1304700000001
  0
LINE
  8
_0-2_LAYER1
  6
CONTINUOUS
 62
    1
 10
3571.6510416045512
 20
1349.1304700000001
 11
3771.6510416045512
 21
1349.1304700000001
  0
LINE
  8
_0-2_LAYER1
  6
CONTINUOUS
 62
    1
 10
3571.6510416045512
 20
1979.1304700000001
 11
3771.6510416045512
 21
1979.1304700000001
  0
LINE
  8
_0-2_LAYER1
  6
CONTINUOUS
 62
    1
 10
3571.6510416045512
 20
1349.1304700000001
 11
3571.6510416045512
 21
1979.1304700000001
  0
TEXT
  8
_0-2_LAYER1
 62
    7
 10
3551.6510416045512
 20
1611.6304700000001
 40
140
 41
0.8
 50
90
  1
73
  0
LINE
  8
_0-2_LAYER1
  6
CONTINUOUS
 62
    1
 10
3959.0101616045517
 20
2322.4941210000002
 11
3959.0101616045517
 21
2122.4941210000002
  0
LINE
  8
_0-2_LAYER1
  6
CONTINUOUS
 62
    1
 10
4159.0101616045522
 20
2322.4941210000002
 11
4159.0101616045522
 21
2122.4941210000002
  0
LINE
  8
_0-2_LAYER1
  6
CONTINUOUS
 62
    1
 10
3959.0101616045517
 20
2322.4941210000002
 11
4159.0101616045522
 21
2322.4941210000002
  0
TEXT
  8
_0-2_LAYER1
 62
    7
 10
4006.5101616045517
 20
2342.4941210000002
 40
140
 41
0.8
 50
0
  1
20
  0
LINE
  8
_0-2_LAYER1
  6
CONTINUOUS
 62
    1
 10
4591.9920366045526
 20
1899.1304700000001
 11
4391.9920366045526
 21
1899.1304700000001
  0
LINE
  8
_0-2_LAYER1
  6
CONTINUOUS
 62
    1
 10
4591.9920366045526
 20
1979.1304700000001
 11
4391.9920366045526
 21
1979.1304700000001
  0
LINE
  8
_0-2_LAYER1
  6
CONTINUOUS
 62
    1
 10
4591.9920366045526
 20
1899.1304700000001
 11
4591.9920366045526
 21
1979.1304700000001
  0
TEXT
  8
_0-2_LAYER1
 62
    7
 10
4571.9920366045526
 20
1912.8804700000001
 40
140
 41
0.8
 50
90
  1
8
  0
LINE
  8
_0-2_LAYER1
  6
CONTINUOUS
 62
    1
 10
4079.0101616045517
 20
1034.6282040000006
 11
4079.0101616045517
 21
1234.6282040000006
  0
LINE
  8
_0-2_LAYER1
  6
CONTINUOUS
 62
    1
 10
4159.0101616045522
 20
1034.6282040000006
 11
4159.0101616045522
 21
1234.6282040000006
  0
LINE
  8
_0-2_LAYER1
  6
CONTINUOUS
 62
    1
 10
4079.0101616045517
 20
1034.6282040000006
 11
4159.0101616045522
 21
1034.6282040000006
  0
TEXT
  8
_0-2_LAYER1
 62
    7
 10
4092.7601616045517
 20
1054.6282040000006
 40
140
 41
0.8
 50
0
  1
8
  0
LINE
  8
ADD_LINE
  6
DOT
 62
    4
 10
3960.0101616045513
 20
1871.1304700000001
 11
3960.0101616045513
 21
1470.0007475062357
  0
TEXT
  8
_0-2_LAYER1
 62
    7
 10
1009.560778
 20
10022.13047
 40
280
 41
1
 50
0
  1
青空40型　のし積用（Ｗ100）
  0
TEXT
  8
_0-2_LAYER1
 62
    7
 10
1009.560778
 20
1961.6335828547603
 40
140
 41
0.8
 50
0
  1
ﾌﾟﾚｰﾄ(葺土止め)
  0
TEXT
  8
_0-2_LAYER1
 62
    7
 10
1009.560778
 20
4351.2400701614688
 40
140
 41
0.8
 50
0
  1
使用材料 ポリプロピレン
  0
TEXT
  8
_0-2_LAYER1
 62
    7
 10
1009.560778
 20
4812.0927498563342
 40
140
 41
0.8
 50
0
  1
通気部材
  0
TEXT
  8
_0-2_LAYER1
 62
    7
 10
1009.560778
 20
6750.5324459234616
 40
140
 41
0.8
 50
0
  1
使用材料 SUS304 0.4mm
  0
TEXT
  8
_0-2_LAYER1
 62
    7
 10
1009.560778
 20
7433.6209899506457
 40
140
 41
0.8
 50
0
  1
本体
  0
TEXT
  8
_0-2_LAYER1
 62
    7
 10
1009.560778
 20
9370.035788427791
 40
140
 41
0.8
 50
0
  1
外形寸法表
  0
TEXT
  8
_0-2_LAYER1
 62
    7
 10
1009.560778
 20
1475.1779765101799
 40
140
 41
0.8
 50
0
  1
使用材料 ガルバリウム鋼板　0.3mm
  0
TEXT
  8
_0-2_LAYER1
 62
    7
 10
6416.810778
 20
10808.13047
 40
140
 41
0.8
 50
0
  1
10
  0
TEXT
  8
_0-2_LAYER1
 62
    7
 10
10864.310777999999
 20
10808.13047
 40
140
 41
0.8
 50
0
  1
890
  0
TEXT
  8
_0-2_LAYER1
 62
    7
 10
6686.810778
 20
10608.13047
 40
140
 41
0.8
 50
0
  1
44
  0
TEXT
  8
_0-2_LAYER1
 62
    7
 10
7351.810778
 20
10608.13047
 40
140
 41
0.8
 50
0
  1
89
  0
TEXT
  8
_0-2_LAYER1
 62
    7
 10
8241.8107779999991
 20
10608.13047
 40
140
 41
0.8
 50
0
  1
89
  0
TEXT
  8
_0-2_LAYER1
 62
    7
 10
9131.8107779999991
 20
10608.13047
 40
140
 41
0.8
 50
0
  1
89
  0
TEXT
  8
_0-2_LAYER1
 62
    7
 10
10021.810777999999
 20
10608.13047
 40
140
 41
0.8
 50
0
  1
89
  0
TEXT
  8
_0-2_LAYER1
 62
    7
 10
10911.810777999999
 20
10608.13047
 40
140
 41
0.8
 50
0
  1
89
  0
TEXT
  8
_0-2_LAYER1
 62
    7
 10
11801.810777999999
 20
10608.13047
 40
140
 41
0.8
 50
0
  1
89
  0
TEXT
  8
_0-2_LAYER1
 62
    7
 10
12691.810777999999
 20
10608.13047
 40
140
 41
0.8
 50
0
  1
89
  0
TEXT
  8
_0-2_LAYER1
 62
    7
 10
13581.810777999999
 20
10608.13047
 40
140
 41
0.8
 50
0
  1
89
  0
TEXT
  8
_0-2_LAYER1
 62
    7
 10
14471.810777999999
 20
10608.13047
 40
140
 41
0.8
 50
0
  1
89
  0
TEXT
  8
_0-2_LAYER1
 62
    7
 10
15141.810777999999
 20
10608.13047
 40
140
 41
0.8
 50
0
  1
45
  0
TEXT
  8
_0-2_LAYER1
 62
    7
 10
7139.310778
 20
8748.1304700000001
 40
140
 41
0.8
 50
0
  1
145
  0
TEXT
  8
_0-2_LAYER1
 62
    7
 10
8864.3107779999991
 20
8748.1304700000001
 40
140
 41
0.8
 50
0
  1
200
  0
TEXT
  8
_0-2_LAYER1
 62
    7
 10
9916.8107779999991
 20
8824.1304700000001
 40
140
 41
0.8
 50
0
  1
30
  0
TEXT
  8
_0-2_LAYER1
 62
    7
 10
10458.921909999999
 20
9076.3804700000001
 40
140
 41
0.8
 50
90
  1
20
  0
TEXT
  8
_0-2_LAYER1
 62
    7
 10
10864.310777999999
 20
8748.1304700000001
 40
140
 41
0.8
 50
0
  1
200
  0
TEXT
  8
_0-2_LAYER1
 62
    7
 10
12864.310777999999
 20
8748.1304700000001
 40
140
 41
0.8
 50
0
  1
200
  0
TEXT
  8
_0-2_LAYER1
 62
    7
 10
14589.310777999999
 20
8748.1304700000001
 40
140
 41
0.8
 50
0
  1
145
  0
ENDSEC
  0
EOF
