  0
SECTION
  2
HEADER
  9
$ACADVER
  1
AC1009
  9
$INSBASE
 10
0
 20
0
 30
0
  9
$EXTMIN
 10
0
 20
0
  9
$EXTMAX
 10
16800
 20
11880
  9
$LIMMIN
 10
0
 20
0
  9
$LIMMAX
 10
16800
 20
11880
  9
$LTSCALE
 40
40
  0
ENDSEC
  0
SECTION
  2
TABLES
  0
TABLE
  2
LTYPE
 70
     9
  0
LTYPE
  2
CONTINUOUS
 70
    64
  3
実線
 72
    65
 73
     0
 40
0.0
  0
LTYPE
  2
DASHED1
 70
    64
  3
--  --  --  --  --  --  --  --  
 72
    65
 73
     2
 40
2.5
 49
1.25
 49
-1.25
  0
LTYPE
  2
DASHED2
 70
    64
  3
----    ----    ----    ----    
 72
    65
 73
     2
 40
5.0
 49
2.5
 49
-2.5
  0
LTYPE
  2
DASHED3
 70
    64
  3
------  ------  ------  ------  
 72
    65
 73
     2
 40
5.0
 49
3.75
 49
-1.25
  0
LTYPE
  2
CENTER1
 70
    64
  3
----- - ----- - ----- - ----- - 
 72
    65
 73
     4
 40
10.0
 49
6.25
 49
-1.25
 49
1.25
 49
-1.25
  0
LTYPE
  2
CENTER2
 70
    64
  3
----------  --  ----------  --  
 72
    65
 73
     4
 40
20.0
 49
12.5
 49
-2.5
 49
2.5
 49
-2.5
  0
LTYPE
  2
PHANTOM1
 70
    64
  3
--- - - --- - - --- - - --- - - 
 72
    65
 73
     6
 40
10.0
 49
3.25
 49
-1.25
 49
1.25
 49
-1.25
 49
1.25
 49
-1.25
  0
LTYPE
  2
PHANTOM2
 70
    64
  3
--------  -  -  --------  -  -  
 72
    65
 73
     6
 40
20.0
 49
10.0
 49
-2.5
 49
1.25
 49
-2.5
 49
1.25
 49
-2.5
  0
LTYPE
  2
DOT
 70
    64
  3
-   -   -   -   -   -   -   -   
 72
    65
 73
     2
 40
2.5
 49
0.625
 49
-1.875
  0
LTYPE
  2
DUMMY
 70
    64
  3
ダミー
 72
    65
 73
     0
 40
0.0
  0
LTYPE
  2
RAND1
 70
    64
  3
ランダム線1
 72
    65
 73
     4
 40
10.0
 49
1.0
 49
-2.0
 49
3.0
 49
-4.0
  0
LTYPE
  2
RAND2
 70
    64
  3
ランダム線2
 72
    65
 73
     4
 40
14.0
 49
2.0
 49
-3.0
 49
4.0
 49
-5.0
  0
LTYPE
  2
RAND3
 70
    64
  3
ランダム線3
 72
    65
 73
     4
 40
18.0
 49
3.0
 49
-4.0
 49
5.0
 49
-6.0
  0
LTYPE
  2
RAND4
 70
    64
  3
ランダム線4
 72
    65
 73
     4
 40
22.0
 49
4.0
 49
-5.0
 49
6.0
 49
-7.0
  0
LTYPE
  2
RAND5
 70
    64
  3
ランダム線5
 72
    65
 73
     4
 40
26.0
 49
5.0
 49
-6.0
 49
7.0
 49
-8.0
  0
LTYPE
  2
LONG1
 70
    64
  3
----------  --  ----------  --  
 72
    65
 73
     4
 40
40.0
 49
32.5
 49
-2.5
 49
2.5
 49
-2.5
  0
LTYPE
  2
LONG2
 70
    64
  3
--------  -  -  --------  -  -  
 72
    65
 73
     6
 40
40.0
 49
30.0
 49
-2.5
 49
1.25
 49
-2.5
 49
1.25
 49
-2.5
  0
LTYPE
  2
LONG3
 70
    64
  3
+++++++++++++++..+++++++++++++++
 72
    65
 73
     2
 40
40.0
 49
37.5
 49
-2.5
  0
LTYPE
  2
LONG4
 70
    64
  3
+++++++++++++++..+++++++++++++++
 72
    65
 73
     2
 40
80.0
 49
75.0
 49
-5.0
  0
LTYPE
  2
LONG5
 70
    64
  3
----------  --  ----------  --  
 72
    65
 73
     4
 40
60.0
 49
37.5
 49
-7.5
 49
7.5
 49
-7.5
  0
LTYPE
  2
dashed
 70
   64
  3
-------   -------------   ------
 72
   65
 73
    2
 40
7.5
 49
6
 49
-1.5
  0
LTYPE
  2
dashed_spaced
 70
   64
  3
----        --------        ----
 72
   65
 73
    2
 40
12
 49
6
 49
-6
  0
LTYPE
  2
long_dashed_dotted
 70
   64
  3
------------- --- --------------
 72
   65
 73
    4
 40
15.25
 49
12
 49
-1.5
 49
0.25
 49
-1.5
  0
LTYPE
  2
long_dashed_double-dotted
 70
   64
  3
----------- --- --- ------------
 72
   65
 73
    6
 40
17
 49
12
 49
-1.5
 49
0.25
 49
-1.5
 49
0.25
 49
-1.5
  0
LTYPE
  2
long_dashed_triplicate-dotted
 70
   64
  3
--------- --- --- --- ----------
 72
   65
 73
    8
 40
18.75
 49
12
 49
-1.5
 49
0.25
 49
-1.5
 49
0.25
 49
-1.5
 49
0.25
 49
-1.5
  0
LTYPE
  2
dotted
 70
   64
  3
   -       -       -       -    
 72
   65
 73
    2
 40
1.75
 49
0.25
 49
-1.5
  0
LTYPE
  2
chain
 70
   64
  3
-------------- -- --------------
 72
   65
 73
    4
 40
18.5
 49
12
 49
-1.5
 49
3.5
 49
-1.5
  0
LTYPE
  2
chain_double_dash
 70
   64
  3
------------ -- -- -------------
 72
   65
 73
    6
 40
23.5
 49
12
 49
-1.5
 49
3.5
 49
-1.5
 49
3.5
 49
-1.5
  0
LTYPE
  2
dashed_dotted
 70
   64
  3
-----------     -     ----------
 72
   65
 73
    4
 40
9.25
 49
6
 49
-1.5
 49
0.25
 49
-1.5
  0
LTYPE
  2
double-dashed_dotted
 70
   64
  3
------   -----------   -   -----
 72
   65
 73
    6
 40
16.75
 49
6
 49
-1.5
 49
6
 49
-1.5
 49
0.25
 49
-1.5
  0
LTYPE
  2
dashed_double-dotted
 70
   64
  3
---------    -    -    ---------
 72
   65
 73
    6
 40
11
 49
6
 49
-1.5
 49
0.25
 49
-1.5
 49
0.25
 49
-1.5
  0
LTYPE
  2
double-dashed_double-dotted
 70
   64
  3
-----   ---------   -   -   ----
 72
   65
 73
    8
 40
18.5
 49
6
 49
-1.5
 49
6
 49
-1.5
 49
0.25
 49
-1.5
 49
0.25
 49
-1.5
  0
LTYPE
  2
dashed_triplicate-dotted
 70
   64
  3
-------    -    -    -    ------
 72
   65
 73
    8
 40
12.75
 49
6
 49
-1.5
 49
0.25
 49
-1.5
 49
0.25
 49
-1.5
 49
0.25
 49
-1.5
  0
LTYPE
  2
double-dashed_triplicate-dotted
 70
   64
  3
-----  ---------  -  -  -  -----
 72
   65
 73
   10
 40
20.25
 49
6
 49
-1.5
 49
6
 49
-1.5
 49
0.25
 49
-1.5
 49
0.25
 49
-1.5
 49
0.25
 49
-1.5
  0
LTYPE
  2
undefined
 70
   64
  3
--------------------------------
 72
   65
 73
    0
 40
0
  0
LTYPE
  2
DASHED
 70
   64
  3
------     -----------     -----
 72
   65
 73
    2
 40
1.5
 49
1
 49
-0.5
  0
LTYPE
  2
CENTER
 70
   64
  3
---------          --  ---------
 72
   65
 73
    4
 40
4
 49
2.25
 49
-1.25
 49
0.25
 49
-0.25
  0
LTYPE
  2
PHANTOM
 70
   64
  3
--------        --  --  --------
 72
   65
 73
    6
 40
5
 49
2.75
 49
-1.25
 49
0.25
 49
-0.25
 49
0.25
 49
-0.25
  0
LTYPE
  2
_
 70
   64
  3
                                
 72
   65
 73
    0
 40
0
  0
LTYPE
  2
__21
 70
   64
  3
                                
 72
   65
 73
    0
 40
0
  0
LTYPE
  2
__22
 70
   64
  3
                                
 72
   65
 73
    0
 40
0
  0
LTYPE
  2
__23
 70
   64
  3
                                
 72
   65
 73
    0
 40
0
  0
LTYPE
  2
__24
 70
   64
  3
                                
 72
   65
 73
    0
 40
0
  0
LTYPE
  2
__25
 70
   64
  3
                                
 72
   65
 73
    0
 40
0
  0
LTYPE
  2
__26
 70
   64
  3
                                
 72
   65
 73
    0
 40
0
  0
LTYPE
  2
__27
 70
   64
  3
                                
 72
   65
 73
    0
 40
0
  0
LTYPE
  2
__28
 70
   64
  3
                                
 72
   65
 73
    0
 40
0
  0
LTYPE
  2
__29
 70
   64
  3
                                
 72
   65
 73
    0
 40
0
  0
LTYPE
  2
__30
 70
   64
  3
                                
 72
   65
 73
    0
 40
0
  0
LTYPE
  2
__31
 70
   64
  3
                                
 72
   65
 73
    0
 40
0
  0
LTYPE
  2
__32
 70
   64
  3
                                
 72
   65
 73
    0
 40
0
  0
ENDTAB
  0
TABLE
  2
STYLE
  5
3
100
AcDbSymbolTable
 70
     1
  0
STYLE
  5
10
100
AcDbSymbolTableRecord
100
AcDbTextStyleTableRecord
  2
STANDARD
 70
     0
 40
0.0
 41
1.0
 50
0.0
 71
     0
 42
0.2
  3
txt
  4
bigfont.shx
  0
STYLE
  5
26
100
AcDbSymbolTableRecord
100
AcDbTextStyleTableRecord
  2
TATEGAKI
 70
    68
 40
0.0
 41
1.0
 50
0.0
 71
     0
 42
1.0
  3
txt
  4
bigfont.shx
  0
ENDTAB
  0
TABLE
  2
LAYER
 70
    2
  0
LAYER
  2
_0-2_LAYER1
 70
   64
 62
    7
  6
CONTINUOUS
  0
LAYER
  2
ADD_LINE
 70
   64
 62
    7
  6
CONTINUOUS
  0
ENDTAB
  0
ENDSEC
  0
SECTION
  2
BLOCKS
  0
ENDSEC
  0
SECTION
  2
ENTITIES
  0
LINE
  8
_0-2_LAYER1
  6
CONTINUOUS
 62
    1
 10
6484.560778
 20
2433.1304700000001
 11
15484.560777999999
 21
2433.1304700000001
  0
LINE
  8
_0-2_LAYER1
  6
CONTINUOUS
 62
    1
 10
6484.560778
 20
2433.1304700000001
 11
6484.560778
 21
2233.1304700000001
  0
LINE
  8
_0-2_LAYER1
  6
CONTINUOUS
 62
    1
 10
6484.560778
 20
2233.1304700000001
 11
15484.560777999999
 21
2233.1304700000001
  0
LINE
  8
_0-2_LAYER1
  6
CONTINUOUS
 62
    1
 10
15484.560777999999
 20
2233.1304700000001
 11
15484.560777999999
 21
2433.1304700000001
  0
LINE
  8
_0-2_LAYER1
  6
CONTINUOUS
 62
    1
 10
6734.560778
 20
2433.1304700000001
 11
6734.560778
 21
2233.1304700000001
  0
LINE
  8
_0-2_LAYER1
  6
CONTINUOUS
 62
    1
 10
7234.560778
 20
2233.1304700000001
 11
7234.560778
 21
2433.1304700000001
  0
LINE
  8
_0-2_LAYER1
  6
CONTINUOUS
 62
    1
 10
7534.560778
 20
2433.1304700000001
 11
7534.560778
 21
2233.1304700000001
  0
LINE
  8
_0-2_LAYER1
  6
CONTINUOUS
 62
    1
 10
8034.560778
 20
2233.1304700000001
 11
8034.560778
 21
2433.1304700000001
  0
LINE
  8
_0-2_LAYER1
  6
CONTINUOUS
 62
    1
 10
8334.5607779999991
 20
2433.1304700000001
 11
8334.5607779999991
 21
2233.1304700000001
  0
LINE
  8
_0-2_LAYER1
  6
CONTINUOUS
 62
    1
 10
8834.5607779999991
 20
2233.1304700000001
 11
8834.5607779999991
 21
2433.1304700000001
  0
LINE
  8
_0-2_LAYER1
  6
CONTINUOUS
 62
    1
 10
9134.5607779999991
 20
2433.1304700000001
 11
9134.5607779999991
 21
2233.1304700000001
  0
LINE
  8
_0-2_LAYER1
  6
CONTINUOUS
 62
    1
 10
9634.5607779999991
 20
2233.1304700000001
 11
9634.5607779999991
 21
2433.1304700000001
  0
LINE
  8
_0-2_LAYER1
  6
CONTINUOUS
 62
    1
 10
9934.5607779999991
 20
2433.1304700000001
 11
9934.5607779999991
 21
2233.1304700000001
  0
LINE
  8
_0-2_LAYER1
  6
CONTINUOUS
 62
    1
 10
10434.560777999999
 20
2233.1304700000001
 11
10434.560777999999
 21
2433.1304700000001
  0
LINE
  8
_0-2_LAYER1
  6
CONTINUOUS
 62
    1
 10
10734.560777999999
 20
2433.1304700000001
 11
10734.560777999999
 21
2233.1304700000001
  0
LINE
  8
_0-2_LAYER1
  6
CONTINUOUS
 62
    1
 10
11234.560777999999
 20
2233.1304700000001
 11
11234.560777999999
 21
2433.1304700000001
  0
LINE
  8
_0-2_LAYER1
  6
CONTINUOUS
 62
    1
 10
11534.560777999999
 20
2433.1304700000001
 11
11534.560777999999
 21
2233.1304700000001
  0
LINE
  8
_0-2_LAYER1
  6
CONTINUOUS
 62
    1
 10
12034.560777999999
 20
2233.1304700000001
 11
12034.560777999999
 21
2433.1304700000001
  0
LINE
  8
_0-2_LAYER1
  6
CONTINUOUS
 62
    1
 10
12334.560777999999
 20
2433.1304700000001
 11
12334.560777999999
 21
2233.1304700000001
  0
LINE
  8
_0-2_LAYER1
  6
CONTINUOUS
 62
    1
 10
12834.560777999999
 20
2233.1304700000001
 11
12834.560777999999
 21
2433.1304700000001
  0
LINE
  8
_0-2_LAYER1
  6
CONTINUOUS
 62
    1
 10
13134.560777999999
 20
2433.1304700000001
 11
13134.560777999999
 21
2233.1304700000001
  0
LINE
  8
_0-2_LAYER1
  6
CONTINUOUS
 62
    1
 10
13634.560777999999
 20
2233.1304700000001
 11
13634.560777999999
 21
2433.1304700000001
  0
LINE
  8
_0-2_LAYER1
  6
CONTINUOUS
 62
    1
 10
13934.560777999999
 20
2433.1304700000001
 11
13934.560777999999
 21
2233.1304700000001
  0
LINE
  8
_0-2_LAYER1
  6
CONTINUOUS
 62
    1
 10
14434.560777999999
 20
2233.1304700000001
 11
14434.560777999999
 21
2433.1304700000001
  0
LINE
  8
_0-2_LAYER1
  6
CONTINUOUS
 62
    1
 10
14734.560777999999
 20
2433.1304700000001
 11
14734.560777999999
 21
2233.1304700000001
  0
LINE
  8
_0-2_LAYER1
  6
CONTINUOUS
 62
    1
 10
15234.560777999999
 20
2233.1304700000001
 11
15234.560777999999
 21
2433.1304700000001
  0
LINE
  8
_0-2_LAYER1
  6
CONTINUOUS
 62
    1
 10
6734.560778
 20
2353.1304700000001
 11
7234.560778
 21
2353.1304700000001
  0
LINE
  8
_0-2_LAYER1
  6
CONTINUOUS
 62
    1
 10
7534.560778
 20
2353.1304700000001
 11
8034.560778
 21
2353.1304700000001
  0
LINE
  8
_0-2_LAYER1
  6
CONTINUOUS
 62
    1
 10
8334.5607779999991
 20
2353.1304700000001
 11
8834.5607779999991
 21
2353.1304700000001
  0
LINE
  8
_0-2_LAYER1
  6
CONTINUOUS
 62
    1
 10
9134.5607779999991
 20
2353.1304700000001
 11
9634.5607779999991
 21
2353.1304700000001
  0
LINE
  8
_0-2_LAYER1
  6
CONTINUOUS
 62
    1
 10
9934.5607779999991
 20
2353.1304700000001
 11
10434.560777999999
 21
2353.1304700000001
  0
LINE
  8
_0-2_LAYER1
  6
CONTINUOUS
 62
    1
 10
10734.560777999999
 20
2353.1304700000001
 11
11234.560777999999
 21
2353.1304700000001
  0
LINE
  8
_0-2_LAYER1
  6
CONTINUOUS
 62
    1
 10
11534.560777999999
 20
2353.1304700000001
 11
12034.560777999999
 21
2353.1304700000001
  0
LINE
  8
_0-2_LAYER1
  6
CONTINUOUS
 62
    1
 10
12334.560777999999
 20
2353.1304700000001
 11
12834.560777999999
 21
2353.1304700000001
  0
LINE
  8
_0-2_LAYER1
  6
CONTINUOUS
 62
    1
 10
13134.560777999999
 20
2353.1304700000001
 11
13634.560777999999
 21
2353.1304700000001
  0
LINE
  8
_0-2_LAYER1
  6
CONTINUOUS
 62
    1
 10
13934.560777999999
 20
2353.1304700000001
 11
14434.560777999999
 21
2353.1304700000001
  0
LINE
  8
_0-2_LAYER1
  6
CONTINUOUS
 62
    1
 10
14734.560777999999
 20
2353.1304700000001
 11
15234.560777999999
 21
2353.1304700000001
  0
LINE
  8
_0-2_LAYER1
  6
CONTINUOUS
 62
    1
 10
15484.560777999999
 20
1979.1304700000001
 11
15484.560777999999
 21
1351.1304700000001
  0
LINE
  8
_0-2_LAYER1
  6
CONTINUOUS
 62
    1
 10
15484.560777999999
 20
1351.1304700000001
 11
6484.560778
 21
1351.1304700000001
  0
LINE
  8
_0-2_LAYER1
  6
CONTINUOUS
 62
    1
 10
6484.560778
 20
1979.1304700000001
 11
6484.560778
 21
1351.1304700000001
  0
LINE
  8
_0-2_LAYER1
  6
CONTINUOUS
 62
    1
 10
15484.560777999999
 20
1979.1304700000001
 11
6484.560778
 21
1979.1304700000001
  0
LINE
  8
_0-2_LAYER1
  6
CONTINUOUS
 62
    1
 10
6484.560778
 20
2888.1304700000001
 11
6484.560778
 21
2688.1304700000001
  0
LINE
  8
_0-2_LAYER1
  6
CONTINUOUS
 62
    1
 10
6484.560778
 20
2888.1304700000001
 11
6734.560778
 21
2888.1304700000001
  0
TEXT
  8
_0-2_LAYER1
 62
    7
 10
6557.060778
 20
2908.1304700000001
 40
140
 41
0.8
 50
0
  1
25
  0
LINE
  8
_0-2_LAYER1
  6
CONTINUOUS
 62
    1
 10
6734.560778
 20
2888.1304700000001
 11
6734.560778
 21
2688.1304700000001
  0
LINE
  8
_0-2_LAYER1
  6
CONTINUOUS
 62
    1
 10
6734.560778
 20
2888.1304700000001
 11
7234.560778
 21
2888.1304700000001
  0
TEXT
  8
_0-2_LAYER1
 62
    7
 10
6932.060778
 20
2908.1304700000001
 40
140
 41
0.8
 50
0
  1
50
  0
LINE
  8
_0-2_LAYER1
  6
CONTINUOUS
 62
    1
 10
7234.560778
 20
2888.1304700000001
 11
7234.560778
 21
2688.1304700000001
  0
LINE
  8
_0-2_LAYER1
  6
CONTINUOUS
 62
    1
 10
7534.560778
 20
2888.1304700000001
 11
7534.560778
 21
2688.1304700000001
  0
LINE
  8
_0-2_LAYER1
  6
CONTINUOUS
 62
    1
 10
7234.560778
 20
2888.1304700000001
 11
7534.560778
 21
2888.1304700000001
  0
TEXT
  8
_0-2_LAYER1
 62
    7
 10
7332.060778
 20
2908.1304700000001
 40
140
 41
0.8
 50
0
  1
30
  0
LINE
  8
_0-2_LAYER1
  6
CONTINUOUS
 62
    1
 10
7534.560778
 20
2888.1304700000001
 11
8034.560778
 21
2888.1304700000001
  0
TEXT
  8
_0-2_LAYER1
 62
    7
 10
7732.060778
 20
2908.1304700000001
 40
140
 41
0.8
 50
0
  1
50
  0
LINE
  8
_0-2_LAYER1
  6
CONTINUOUS
 62
    1
 10
8034.560778
 20
2888.1304700000001
 11
8034.560778
 21
2688.1304700000001
  0
LINE
  8
_0-2_LAYER1
  6
CONTINUOUS
 62
    1
 10
8334.5607779999991
 20
2888.1304700000001
 11
8334.5607779999991
 21
2688.1304700000001
  0
LINE
  8
_0-2_LAYER1
  6
CONTINUOUS
 62
    1
 10
8034.560778
 20
2888.1304700000001
 11
8334.5607779999991
 21
2888.1304700000001
  0
TEXT
  8
_0-2_LAYER1
 62
    7
 10
8132.060778
 20
2908.1304700000001
 40
140
 41
0.8
 50
0
  1
30
  0
LINE
  8
_0-2_LAYER1
  6
CONTINUOUS
 62
    1
 10
8334.5607779999991
 20
2888.1304700000001
 11
8834.5607779999991
 21
2888.1304700000001
  0
TEXT
  8
_0-2_LAYER1
 62
    7
 10
8532.0607779999991
 20
2908.1304700000001
 40
140
 41
0.8
 50
0
  1
50
  0
LINE
  8
_0-2_LAYER1
  6
CONTINUOUS
 62
    1
 10
8834.5607779999991
 20
2888.1304700000001
 11
8834.5607779999991
 21
2688.1304700000001
  0
LINE
  8
_0-2_LAYER1
  6
CONTINUOUS
 62
    1
 10
8834.5607779999991
 20
2888.1304700000001
 11
9134.5607779999991
 21
2888.1304700000001
  0
TEXT
  8
_0-2_LAYER1
 62
    7
 10
8932.0607779999991
 20
2908.1304700000001
 40
140
 41
0.8
 50
0
  1
30
  0
LINE
  8
_0-2_LAYER1
  6
CONTINUOUS
 62
    1
 10
9134.5607779999991
 20
2888.1304700000001
 11
9134.5607779999991
 21
2688.1304700000001
  0
LINE
  8
_0-2_LAYER1
  6
CONTINUOUS
 62
    1
 10
9134.5607779999991
 20
2888.1304700000001
 11
9634.5607779999991
 21
2888.1304700000001
  0
TEXT
  8
_0-2_LAYER1
 62
    7
 10
9332.0607779999991
 20
2908.1304700000001
 40
140
 41
0.8
 50
0
  1
50
  0
LINE
  8
_0-2_LAYER1
  6
CONTINUOUS
 62
    1
 10
9634.5607779999991
 20
2888.1304700000001
 11
9634.5607779999991
 21
2688.1304700000001
  0
LINE
  8
_0-2_LAYER1
  6
CONTINUOUS
 62
    1
 10
9634.5607779999991
 20
2888.1304700000001
 11
9934.5607779999991
 21
2888.1304700000001
  0
TEXT
  8
_0-2_LAYER1
 62
    7
 10
9732.0607779999991
 20
2908.1304700000001
 40
140
 41
0.8
 50
0
  1
30
  0
LINE
  8
_0-2_LAYER1
  6
CONTINUOUS
 62
    1
 10
9934.5607779999991
 20
2888.1304700000001
 11
9934.5607779999991
 21
2688.1304700000001
  0
LINE
  8
_0-2_LAYER1
  6
CONTINUOUS
 62
    1
 10
10434.560777999999
 20
2888.1304700000001
 11
10434.560777999999
 21
2688.1304700000001
  0
LINE
  8
_0-2_LAYER1
  6
CONTINUOUS
 62
    1
 10
9934.5607779999991
 20
2888.1304700000001
 11
10434.560777999999
 21
2888.1304700000001
  0
TEXT
  8
_0-2_LAYER1
 62
    7
 10
10132.060777999999
 20
2908.1304700000001
 40
140
 41
0.8
 50
0
  1
50
  0
LINE
  8
_0-2_LAYER1
  6
CONTINUOUS
 62
    1
 10
10734.560777999999
 20
2888.1304700000001
 11
10734.560777999999
 21
2688.1304700000001
  0
LINE
  8
_0-2_LAYER1
  6
CONTINUOUS
 62
    1
 10
10434.560777999999
 20
2888.1304700000001
 11
10734.560777999999
 21
2888.1304700000001
  0
TEXT
  8
_0-2_LAYER1
 62
    7
 10
10532.060777999999
 20
2908.1304700000001
 40
140
 41
0.8
 50
0
  1
30
  0
LINE
  8
_0-2_LAYER1
  6
CONTINUOUS
 62
    1
 10
11234.560777999999
 20
2888.1304700000001
 11
11234.560777999999
 21
2688.1304700000001
  0
LINE
  8
_0-2_LAYER1
  6
CONTINUOUS
 62
    1
 10
10734.560777999999
 20
2888.1304700000001
 11
11234.560777999999
 21
2888.1304700000001
  0
TEXT
  8
_0-2_LAYER1
 62
    7
 10
10932.060777999999
 20
2908.1304700000001
 40
140
 41
0.8
 50
0
  1
50
  0
LINE
  8
_0-2_LAYER1
  6
CONTINUOUS
 62
    1
 10
11534.560777999999
 20
2888.1304700000001
 11
11534.560777999999
 21
2688.1304700000001
  0
LINE
  8
_0-2_LAYER1
  6
CONTINUOUS
 62
    1
 10
11234.560777999999
 20
2888.1304700000001
 11
11534.560777999999
 21
2888.1304700000001
  0
TEXT
  8
_0-2_LAYER1
 62
    7
 10
11332.060777999999
 20
2908.1304700000001
 40
140
 41
0.8
 50
0
  1
30
  0
LINE
  8
_0-2_LAYER1
  6
CONTINUOUS
 62
    1
 10
12034.560777999999
 20
2888.1304700000001
 11
12034.560777999999
 21
2688.1304700000001
  0
LINE
  8
_0-2_LAYER1
  6
CONTINUOUS
 62
    1
 10
11534.560777999999
 20
2888.1304700000001
 11
12034.560777999999
 21
2888.1304700000001
  0
TEXT
  8
_0-2_LAYER1
 62
    7
 10
11732.060777999999
 20
2908.1304700000001
 40
140
 41
0.8
 50
0
  1
50
  0
LINE
  8
_0-2_LAYER1
  6
CONTINUOUS
 62
    1
 10
12334.560777999999
 20
2888.1304700000001
 11
12334.560777999999
 21
2688.1304700000001
  0
LINE
  8
_0-2_LAYER1
  6
CONTINUOUS
 62
    1
 10
12034.560777999999
 20
2888.1304700000001
 11
12334.560777999999
 21
2888.1304700000001
  0
TEXT
  8
_0-2_LAYER1
 62
    7
 10
12132.060777999999
 20
2908.1304700000001
 40
140
 41
0.8
 50
0
  1
30
  0
LINE
  8
_0-2_LAYER1
  6
CONTINUOUS
 62
    1
 10
12834.560777999999
 20
2888.1304700000001
 11
12834.560777999999
 21
2688.1304700000001
  0
LINE
  8
_0-2_LAYER1
  6
CONTINUOUS
 62
    1
 10
12334.560777999999
 20
2888.1304700000001
 11
12834.560777999999
 21
2888.1304700000001
  0
TEXT
  8
_0-2_LAYER1
 62
    7
 10
12532.060777999999
 20
2908.1304700000001
 40
140
 41
0.8
 50
0
  1
50
  0
LINE
  8
_0-2_LAYER1
  6
CONTINUOUS
 62
    1
 10
13134.560777999999
 20
2888.1304700000001
 11
13134.560777999999
 21
2688.1304700000001
  0
LINE
  8
_0-2_LAYER1
  6
CONTINUOUS
 62
    1
 10
12834.560777999999
 20
2888.1304700000001
 11
13134.560777999999
 21
2888.1304700000001
  0
TEXT
  8
_0-2_LAYER1
 62
    7
 10
12932.060777999999
 20
2908.1304700000001
 40
140
 41
0.8
 50
0
  1
30
  0
LINE
  8
_0-2_LAYER1
  6
CONTINUOUS
 62
    1
 10
13134.560777999999
 20
2888.1304700000001
 11
13634.560777999999
 21
2888.1304700000001
  0
TEXT
  8
_0-2_LAYER1
 62
    7
 10
13332.060777999999
 20
2908.1304700000001
 40
140
 41
0.8
 50
0
  1
50
  0
LINE
  8
_0-2_LAYER1
  6
CONTINUOUS
 62
    1
 10
13634.560777999999
 20
2888.1304700000001
 11
13634.560777999999
 21
2688.1304700000001
  0
LINE
  8
_0-2_LAYER1
  6
CONTINUOUS
 62
    1
 10
13634.560777999999
 20
2888.1304700000001
 11
13934.560777999999
 21
2888.1304700000001
  0
TEXT
  8
_0-2_LAYER1
 62
    7
 10
13732.060777999999
 20
2908.1304700000001
 40
140
 41
0.8
 50
0
  1
30
  0
LINE
  8
_0-2_LAYER1
  6
CONTINUOUS
 62
    1
 10
13934.560777999999
 20
2888.1304700000001
 11
13934.560777999999
 21
2688.1304700000001
  0
LINE
  8
_0-2_LAYER1
  6
CONTINUOUS
 62
    1
 10
14434.560777999999
 20
2888.1304700000001
 11
14434.560777999999
 21
2688.1304700000001
  0
LINE
  8
_0-2_LAYER1
  6
CONTINUOUS
 62
    1
 10
13934.560777999999
 20
2888.1304700000001
 11
14434.560777999999
 21
2888.1304700000001
  0
TEXT
  8
_0-2_LAYER1
 62
    7
 10
14132.060777999999
 20
2908.1304700000001
 40
140
 41
0.8
 50
0
  1
50
  0
LINE
  8
_0-2_LAYER1
  6
CONTINUOUS
 62
    1
 10
14434.560777999999
 20
2888.1304700000001
 11
14734.560777999999
 21
2888.1304700000001
  0
TEXT
  8
_0-2_LAYER1
 62
    7
 10
14532.060777999999
 20
2908.1304700000001
 40
140
 41
0.8
 50
0
  1
30
  0
LINE
  8
_0-2_LAYER1
  6
CONTINUOUS
 62
    1
 10
14734.560777999999
 20
2888.1304700000001
 11
14734.560777999999
 21
2688.1304700000001
  0
LINE
  8
_0-2_LAYER1
  6
CONTINUOUS
 62
    1
 10
14734.560777999999
 20
2888.1304700000001
 11
15234.560777999999
 21
2888.1304700000001
  0
TEXT
  8
_0-2_LAYER1
 62
    7
 10
14932.060777999999
 20
2908.1304700000001
 40
140
 41
0.8
 50
0
  1
50
  0
LINE
  8
_0-2_LAYER1
  6
CONTINUOUS
 62
    1
 10
15234.560777999999
 20
2888.1304700000001
 11
15234.560777999999
 21
2688.1304700000001
  0
LINE
  8
_0-2_LAYER1
  6
CONTINUOUS
 62
    1
 10
15484.560777999999
 20
2888.1304700000001
 11
15484.560777999999
 21
2688.1304700000001
  0
LINE
  8
_0-2_LAYER1
  6
CONTINUOUS
 62
    1
 10
15234.560777999999
 20
2888.1304700000001
 11
15484.560777999999
 21
2888.1304700000001
  0
TEXT
  8
_0-2_LAYER1
 62
    7
 10
15307.060777999999
 20
2908.1304700000001
 40
140
 41
0.8
 50
0
  1
25
  0
LINE
  8
_0-2_LAYER1
  6
CONTINUOUS
 62
    1
 10
15484.560777999999
 20
3088.1304700000001
 11
15484.560777999999
 21
2888.1304700000001
  0
LINE
  8
_0-2_LAYER1
  6
CONTINUOUS
 62
    1
 10
6484.560778
 20
3088.1304700000001
 11
6484.560778
 21
2888.1304700000001
  0
LINE
  8
_0-2_LAYER1
  6
CONTINUOUS
 62
    1
 10
15484.560777999999
 20
3088.1304700000001
 11
6484.560778
 21
3088.1304700000001
  0
TEXT
  8
_0-2_LAYER1
 62
    7
 10
10905.810777999999
 20
3108.1304700000001
 40
140
 41
0.8
 50
0
  1
900
  0
LINE
  8
_0-2_LAYER1
  6
CONTINUOUS
 62
    1
 10
15484.560777999999
 20
1879.1304700000001
 11
6484.560778
 21
1879.1304700000001
  0
LINE
  8
_0-2_LAYER1
  6
CONTINUOUS
 62
    1
 10
6545.560778
 20
9840.1304700000001
 11
15445.560777999999
 21
9840.1304700000001
  0
LINE
  8
_0-2_LAYER1
  6
CONTINUOUS
 62
    1
 10
6545.560778
 20
9400.1304700000001
 11
15445.560777999999
 21
9400.1304700000001
  0
LINE
  8
_0-2_LAYER1
  6
CONTINUOUS
 62
    1
 10
6545.560778
 20
9055.1304700000001
 11
6545.560778
 21
10185.13047
  0
LINE
  8
_0-2_LAYER1
  6
CONTINUOUS
 62
    1
 10
15445.560777999999
 20
10185.13047
 11
15445.560777999999
 21
9055.1304700000001
  0
LINE
  8
_0-2_LAYER1
  6
CONTINUOUS
 62
    1
 10
6445.560778
 20
10185.13047
 11
6445.560778
 21
9055.1304700000001
  0
LINE
  8
_0-2_LAYER1
  6
CONTINUOUS
 62
    1
 10
6445.560778
 20
10185.13047
 11
7845.560778
 21
10185.13047
  0
LINE
  8
_0-2_LAYER1
  6
CONTINUOUS
 62
    1
 10
8145.560778
 20
10185.13047
 11
9845.5607779999991
 21
10185.13047
  0
LINE
  8
_0-2_LAYER1
  6
CONTINUOUS
 62
    1
 10
10145.560777999999
 20
10185.13047
 11
11845.560777999999
 21
10185.13047
  0
LINE
  8
_0-2_LAYER1
  6
CONTINUOUS
 62
    1
 10
12145.560777999999
 20
10185.13047
 11
13845.560777999999
 21
10185.13047
  0
LINE
  8
_0-2_LAYER1
  6
CONTINUOUS
 62
    1
 10
14145.560777999999
 20
10185.13047
 11
15445.560777999999
 21
10185.13047
  0
LINE
  8
_0-2_LAYER1
  6
CONTINUOUS
 62
    1
 10
6445.560778
 20
9055.1304700000001
 11
7845.560778
 21
9055.1304700000001
  0
LINE
  8
_0-2_LAYER1
  6
CONTINUOUS
 62
    1
 10
8145.560778
 20
9055.1304700000001
 11
9845.5607779999991
 21
9055.1304700000001
  0
LINE
  8
_0-2_LAYER1
  6
CONTINUOUS
 62
    1
 10
10145.560777999999
 20
9055.1304700000001
 11
11845.560777999999
 21
9055.1304700000001
  0
LINE
  8
_0-2_LAYER1
  6
CONTINUOUS
 62
    1
 10
12145.560777999999
 20
9055.1304700000001
 11
13845.560777999999
 21
9055.1304700000001
  0
LINE
  8
_0-2_LAYER1
  6
CONTINUOUS
 62
    1
 10
14145.560777999999
 20
9055.1304700000001
 11
15445.560777999999
 21
9055.1304700000001
  0
LINE
  8
_0-2_LAYER1
  6
CONTINUOUS
 62
    1
 10
7845.560778
 20
9985.1304700000001
 11
8145.560778
 21
9985.1304700000001
  0
LINE
  8
_0-2_LAYER1
  6
CONTINUOUS
 62
    1
 10
9845.5607779999991
 20
9985.1304700000001
 11
10145.560777999999
 21
9985.1304700000001
  0
LINE
  8
_0-2_LAYER1
  6
CONTINUOUS
 62
    1
 10
11845.560777999999
 20
9985.1304700000001
 11
12145.560777999999
 21
9985.1304700000001
  0
LINE
  8
_0-2_LAYER1
  6
CONTINUOUS
 62
    1
 10
13845.560777999999
 20
9985.1304700000001
 11
14145.560777999999
 21
9985.1304700000001
  0
LINE
  8
_0-2_LAYER1
  6
CONTINUOUS
 62
    1
 10
7845.560778
 20
9255.1304700000001
 11
8145.560778
 21
9255.1304700000001
  0
LINE
  8
_0-2_LAYER1
  6
CONTINUOUS
 62
    1
 10
9845.5607779999991
 20
9255.1304700000001
 11
10145.560777999999
 21
9255.1304700000001
  0
LINE
  8
_0-2_LAYER1
  6
CONTINUOUS
 62
    1
 10
11845.560777999999
 20
9255.1304700000001
 11
12145.560777999999
 21
9255.1304700000001
  0
LINE
  8
_0-2_LAYER1
  6
CONTINUOUS
 62
    1
 10
13845.560777999999
 20
9255.1304700000001
 11
14145.560777999999
 21
9255.1304700000001
  0
LINE
  8
_0-2_LAYER1
  6
CONTINUOUS
 62
    1
 10
7845.560778
 20
10185.13047
 11
7845.560778
 21
9985.1304700000001
  0
LINE
  8
_0-2_LAYER1
  6
CONTINUOUS
 62
    1
 10
7845.560778
 20
9255.1304700000001
 11
7845.560778
 21
9055.1304700000001
  0
LINE
  8
_0-2_LAYER1
  6
CONTINUOUS
 62
    1
 10
8145.560778
 20
9055.1304700000001
 11
8145.560778
 21
9255.1304700000001
  0
LINE
  8
_0-2_LAYER1
  6
CONTINUOUS
 62
    1
 10
8145.560778
 20
9985.1304700000001
 11
8145.560778
 21
10185.13047
  0
LINE
  8
_0-2_LAYER1
  6
CONTINUOUS
 62
    1
 10
9845.5607779999991
 20
10185.13047
 11
9845.5607779999991
 21
9985.1304700000001
  0
LINE
  8
_0-2_LAYER1
  6
CONTINUOUS
 62
    1
 10
9845.5607779999991
 20
9255.1304700000001
 11
9845.5607779999991
 21
9055.1304700000001
  0
LINE
  8
_0-2_LAYER1
  6
CONTINUOUS
 62
    1
 10
10145.560777999999
 20
9055.1304700000001
 11
10145.560777999999
 21
9255.1304700000001
  0
LINE
  8
_0-2_LAYER1
  6
CONTINUOUS
 62
    1
 10
10145.560777999999
 20
9985.1304700000001
 11
10145.560777999999
 21
10185.13047
  0
LINE
  8
_0-2_LAYER1
  6
CONTINUOUS
 62
    1
 10
11845.560777999999
 20
10185.13047
 11
11845.560777999999
 21
9985.1304700000001
  0
LINE
  8
_0-2_LAYER1
  6
CONTINUOUS
 62
    1
 10
11845.560777999999
 20
9255.1304700000001
 11
11845.560777999999
 21
9055.1304700000001
  0
LINE
  8
_0-2_LAYER1
  6
CONTINUOUS
 62
    1
 10
12145.560777999999
 20
9055.1304700000001
 11
12145.560777999999
 21
9255.1304700000001
  0
LINE
  8
_0-2_LAYER1
  6
CONTINUOUS
 62
    1
 10
12145.560777999999
 20
9985.1304700000001
 11
12145.560777999999
 21
10185.13047
  0
LINE
  8
_0-2_LAYER1
  6
CONTINUOUS
 62
    1
 10
13845.560777999999
 20
10185.13047
 11
13845.560777999999
 21
9985.1304700000001
  0
LINE
  8
_0-2_LAYER1
  6
CONTINUOUS
 62
    1
 10
13845.560777999999
 20
9255.1304700000001
 11
13845.560777999999
 21
9055.1304700000001
  0
LINE
  8
_0-2_LAYER1
  6
CONTINUOUS
 62
    1
 10
14145.560777999999
 20
9055.1304700000001
 11
14145.560777999999
 21
9255.1304700000001
  0
LINE
  8
_0-2_LAYER1
  6
CONTINUOUS
 62
    1
 10
14145.560777999999
 20
9985.1304700000001
 11
14145.560777999999
 21
10185.13047
  0
LINE
  8
_0-2_LAYER1
  6
CONTINUOUS
 62
    1
 10
6445.560778
 20
9710.1304700000001
 11
6545.560778
 21
9710.1304700000001
  0
LINE
  8
_0-2_LAYER1
  6
CONTINUOUS
 62
    1
 10
6545.560778
 20
9530.1304700000001
 11
6445.560778
 21
9530.1304700000001
  0
LINE
  8
_0-2_LAYER1
  6
CONTINUOUS
 62
    1
 10
6445.560778
 20
7414.1304700000001
 11
6445.560778
 21
6789.1304700000001
  0
LINE
  8
_0-2_LAYER1
  6
CONTINUOUS
 62
    1
 10
6545.560778
 20
7638.1304700000001
 11
6545.560778
 21
6793.1304700000001
  0
LINE
  8
_0-2_LAYER1
  6
CONTINUOUS
 62
    1
 10
6445.560778
 20
7414.1304700000001
 11
15445.560777999999
 21
7414.1304700000001
  0
LINE
  8
_0-2_LAYER1
  6
CONTINUOUS
 62
    1
 10
6545.560778
 20
6796.1304700000001
 11
7845.560778
 21
6796.1304700000001
  0
LINE
  8
_0-2_LAYER1
  6
CONTINUOUS
 62
    1
 10
6545.560778
 20
6793.1304700000001
 11
7845.560778
 21
6793.1304700000001
  0
LINE
  8
_0-2_LAYER1
  6
CONTINUOUS
 62
    1
 10
6445.560778
 20
6793.1304700000001
 11
7845.560778
 21
6793.1304700000001
  0
LINE
  8
_0-2_LAYER1
  6
CONTINUOUS
 62
    1
 10
8145.560778
 20
6793.1304700000001
 11
9845.5607779999991
 21
6793.1304700000001
  0
LINE
  8
_0-2_LAYER1
  6
CONTINUOUS
 62
    1
 10
10145.560777999999
 20
6793.1304700000001
 11
11845.560777999999
 21
6793.1304700000001
  0
LINE
  8
_0-2_LAYER1
  6
CONTINUOUS
 62
    1
 10
12145.560777999999
 20
6793.1304700000001
 11
13845.560777999999
 21
6793.1304700000001
  0
LINE
  8
_0-2_LAYER1
  6
CONTINUOUS
 62
    1
 10
14145.560777999999
 20
6793.1304700000001
 11
15445.560777999999
 21
6793.1304700000001
  0
LINE
  8
_0-2_LAYER1
  6
CONTINUOUS
 62
    1
 10
6445.560778
 20
6789.1304700000001
 11
7845.560778
 21
6789.1304700000001
  0
LINE
  8
_0-2_LAYER1
  6
CONTINUOUS
 62
    1
 10
8145.560778
 20
6789.1304700000001
 11
9845.5607779999991
 21
6789.1304700000001
  0
LINE
  8
_0-2_LAYER1
  6
CONTINUOUS
 62
    1
 10
10145.560777999999
 20
6789.1304700000001
 11
11845.560777999999
 21
6789.1304700000001
  0
LINE
  8
_0-2_LAYER1
  6
CONTINUOUS
 62
    1
 10
12145.560777999999
 20
6789.1304700000001
 11
13845.560777999999
 21
6789.1304700000001
  0
LINE
  8
_0-2_LAYER1
  6
CONTINUOUS
 62
    1
 10
14145.560777999999
 20
6789.1304700000001
 11
15445.560777999999
 21
6789.1304700000001
  0
LINE
  8
_0-2_LAYER1
  6
CONTINUOUS
 62
    1
 10
8145.560778
 20
6796.1304700000001
 11
9845.5607779999991
 21
6796.1304700000001
  0
LINE
  8
_0-2_LAYER1
  6
CONTINUOUS
 62
    1
 10
10145.560777999999
 20
6796.1304700000001
 11
11845.560777999999
 21
6796.1304700000001
  0
LINE
  8
_0-2_LAYER1
  6
CONTINUOUS
 62
    1
 10
12145.560777999999
 20
6796.1304700000001
 11
13845.560777999999
 21
6796.1304700000001
  0
LINE
  8
_0-2_LAYER1
  6
CONTINUOUS
 62
    1
 10
14145.560777999999
 20
6796.1304700000001
 11
15445.560777999999
 21
6796.1304700000001
  0
LINE
  8
_0-2_LAYER1
  6
CONTINUOUS
 62
    1
 10
15445.560777999999
 20
7638.1304700000001
 11
15445.560777999999
 21
6789.1304700000001
  0
LINE
  8
_0-2_LAYER1
  6
CONTINUOUS
 62
    1
 10
7845.560778
 20
6852.8037960000001
 11
8145.560778
 21
6852.8037960000001
  0
LINE
  8
_0-2_LAYER1
  6
CONTINUOUS
 62
    1
 10
9845.5607779999991
 20
6852.8037960000001
 11
10145.560777999999
 21
6852.8037960000001
  0
LINE
  8
_0-2_LAYER1
  6
CONTINUOUS
 62
    1
 10
11845.560777999999
 20
6852.8037960000001
 11
12145.560777999999
 21
6852.8037960000001
  0
LINE
  8
_0-2_LAYER1
  6
CONTINUOUS
 62
    1
 10
13845.560777999999
 20
6852.8037960000001
 11
14145.560777999999
 21
6852.8037960000001
  0
LINE
  8
_0-2_LAYER1
  6
CONTINUOUS
 62
    1
 10
7845.560778
 20
6845.8037960000001
 11
8145.560778
 21
6845.8037960000001
  0
LINE
  8
_0-2_LAYER1
  6
CONTINUOUS
 62
    1
 10
9845.5607779999991
 20
6845.8037960000001
 11
10145.560777999999
 21
6845.8037960000001
  0
LINE
  8
_0-2_LAYER1
  6
CONTINUOUS
 62
    1
 10
11845.560777999999
 20
6845.8037960000001
 11
12145.560777999999
 21
6845.8037960000001
  0
LINE
  8
_0-2_LAYER1
  6
CONTINUOUS
 62
    1
 10
13845.560777999999
 20
6845.8037960000001
 11
14145.560777999999
 21
6845.8037960000001
  0
LINE
  8
_0-2_LAYER1
  6
CONTINUOUS
 62
    1
 10
7845.560778
 20
6852.8037960000001
 11
7845.560778
 21
6789.1304700000001
  0
LINE
  8
_0-2_LAYER1
  6
CONTINUOUS
 62
    1
 10
8145.560778
 20
6852.8037960000001
 11
8145.560778
 21
6789.1304700000001
  0
LINE
  8
_0-2_LAYER1
  6
CONTINUOUS
 62
    1
 10
9845.5607779999991
 20
6852.8037960000001
 11
9845.5607779999991
 21
6789.1304700000001
  0
LINE
  8
_0-2_LAYER1
  6
CONTINUOUS
 62
    1
 10
10145.560777999999
 20
6852.8037960000001
 11
10145.560777999999
 21
6789.1304700000001
  0
LINE
  8
_0-2_LAYER1
  6
CONTINUOUS
 62
    1
 10
11845.560777999999
 20
6852.8037960000001
 11
11845.560777999999
 21
6789.1304700000001
  0
LINE
  8
_0-2_LAYER1
  6
CONTINUOUS
 62
    1
 10
12145.560777999999
 20
6852.8037960000001
 11
12145.560777999999
 21
6789.1304700000001
  0
LINE
  8
_0-2_LAYER1
  6
CONTINUOUS
 62
    1
 10
13845.560777999999
 20
6852.8037960000001
 11
13845.560777999999
 21
6789.1304700000001
  0
CIRCLE
  8
_0-2_LAYER1
  6
CONTINUOUS
 62
    1
 10
6995.560778
 20
6852.1304700000001
 40
20
  0
CIRCLE
  8
_0-2_LAYER1
  6
CONTINUOUS
 62
    1
 10
8995.5607779999991
 20
6852.1304700000001
 40
20
  0
CIRCLE
  8
_0-2_LAYER1
  6
CONTINUOUS
 62
    1
 10
10995.560777999999
 20
6852.1304700000001
 40
20
  0
CIRCLE
  8
_0-2_LAYER1
  6
CONTINUOUS
 62
    1
 10
12995.560777999999
 20
6852.1304700000001
 40
20
  0
CIRCLE
  8
_0-2_LAYER1
  6
CONTINUOUS
 62
    1
 10
13995.560777999999
 20
6891.3090069999998
 40
20
  0
CIRCLE
  8
_0-2_LAYER1
  6
CONTINUOUS
 62
    1
 10
7995.560778
 20
6891.3090069999998
 40
20
  0
CIRCLE
  8
_0-2_LAYER1
  6
CONTINUOUS
 62
    1
 10
9995.5607779999991
 20
6891.3090069999998
 40
20
  0
CIRCLE
  8
_0-2_LAYER1
  6
CONTINUOUS
 62
    1
 10
11995.560777999999
 20
6891.3090069999998
 40
20
  0
LINE
  8
_0-2_LAYER1
  6
CONTINUOUS
 62
    1
 10
6545.560778
 20
7638.1304700000001
 11
15445.560777999999
 21
7638.1304700000001
  0
CIRCLE
  8
_0-2_LAYER1
  6
CONTINUOUS
 62
    1
 10
14995.560777999999
 20
6852.1304700000001
 40
20
  0
CIRCLE
  8
_0-2_LAYER1
  6
CONTINUOUS
 62
    1
 10
6995.560778
 20
7503.1304700000001
 40
20
  0
CIRCLE
  8
_0-2_LAYER1
  6
CONTINUOUS
 62
    1
 10
8995.5607779999991
 20
7522.1304700000001
 40
20
  0
CIRCLE
  8
_0-2_LAYER1
  6
CONTINUOUS
 62
    1
 10
10995.560777999999
 20
7522.1304700000001
 40
20
  0
CIRCLE
  8
_0-2_LAYER1
  6
CONTINUOUS
 62
    1
 10
12995.560777999999
 20
7522.1304700000001
 40
20
  0
CIRCLE
  8
_0-2_LAYER1
  6
CONTINUOUS
 62
    1
 10
14995.560777999999
 20
7522.1304700000001
 40
20
  0
LINE
  8
_0-2_LAYER1
  6
CONTINUOUS
 62
    1
 10
14145.560777999999
 20
6852.8037960000001
 11
14145.560777999999
 21
6793.1304700000001
  0
LINE
  8
_0-2_LAYER1
  6
CENTER
 62
    1
 10
7995.560778
 20
9255.1304700000001
 11
7995.560778
 21
8844.1304700000001
  0
LINE
  8
_0-2_LAYER1
  6
CENTER
 62
    1
 10
9995.5607779999991
 20
8844.1304700000001
 11
9995.5607779999991
 21
9255.1304700000001
  0
LINE
  8
_0-2_LAYER1
  6
CENTER
 62
    1
 10
11995.560777999999
 20
9255.1304700000001
 11
11995.560777999999
 21
8844.1304700000001
  0
LINE
  8
_0-2_LAYER1
  6
CENTER
 62
    1
 10
13995.560777999999
 20
8844.1304700000001
 11
13995.560777999999
 21
9255.1304700000001
  0
TEXT
  8
_0-2_LAYER1
 62
    7
 10
8045.560778
 20
8286.1304700000001
 40
140
 41
0.8
 50
0
  1
釘穴5-φ4
  0
TEXT
  8
_0-2_LAYER1
 62
    7
 10
9436.0607779999991
 20
7154.1304700000001
 40
140
 41
0.8
 50
0
  1
釘穴5-φ4
  0
LINE
  8
_0-2_LAYER1
  6
CONTINUOUS
 62
    1
 10
7036.5607780000009
 20
7635.1304700000001
 11
6981.5607780000009
 21
7492.1304700000001
  0
LINE
  8
_0-2_LAYER1
  6
CONTINUOUS
 62
    1
 10
6981.5607780000009
 20
7492.1304700000001
 11
8045.560778
 21
8286.1304700000001
  0
LINE
  8
_0-2_LAYER1
  6
CONTINUOUS
 62
    1
 10
8045.560778
 20
8286.1304700000001
 11
8518.0607779999991
 21
8286.1304700000001
  0
LINE
  8
_0-2_LAYER1
  6
CONTINUOUS
 62
    1
 10
10863.560777999999
 20
6820.1304700000001
 11
11011.560777999999
 21
6844.1304700000001
  0
LINE
  8
_0-2_LAYER1
  6
CONTINUOUS
 62
    1
 10
11011.560777999999
 20
6844.1304700000001
 11
9908.5607779999991
 21
7154.1304700000001
  0
LINE
  8
_0-2_LAYER1
  6
CONTINUOUS
 62
    1
 10
9908.5607779999991
 20
7154.1304700000001
 11
9436.0607779999991
 21
7154.1304700000001
  0
TEXT
  8
_0-2_LAYER1
 62
    7
 10
11502.560777999999
 20
8322.1304700000001
 40
140
 41
0.8
 50
0
  1
通気開口部10-50x20
  0
LINE
  8
_0-2_LAYER1
  6
CONTINUOUS
 62
    1
 10
10773.560777999999
 20
7115.1304700000001
 11
10765.560777999999
 21
6965.1304700000001
  0
LINE
  8
_0-2_LAYER1
  6
CONTINUOUS
 62
    1
 10
10765.560777999999
 20
6965.1304700000001
 11
11502.560777999999
 21
8322.1304700000001
  0
LINE
  8
_0-2_LAYER1
  6
CONTINUOUS
 62
    1
 10
11502.560777999999
 20
8322.1304700000001
 11
12447.560777999999
 21
8322.1304700000001
  0
LINE
  8
_0-2_LAYER1
  6
DASHED
 62
    1
 10
15345.560777999999
 20
7414.1304700000001
 11
15345.560777999999
 21
6789.1304700000001
  0
LINE
  8
_0-2_LAYER1
  6
CONTINUOUS
 62
    1
 10
10312.560777999999
 20
7429.1304700000001
 11
10265.560777999999
 21
7286.1304700000001
  0
LINE
  8
_0-2_LAYER1
  6
CONTINUOUS
 62
    1
 10
10265.560777999999
 20
7286.1304700000001
 11
11502.560777999999
 21
8322.1304700000001
  0
TEXT
  8
_0-2_LAYER1
 62
    7
 10
1009.560778
 20
10629.13047
 40
280
 41
1
 50
0
  1
内臓型棟換気ｼｽﾃﾑ
  0
LINE
  8
_0-2_LAYER1
  6
DASHED
 62
    1
 10
6445.560778
 20
6932.1370479999996
 11
15445.560777999999
 21
6932.1370479999996
  0
LINE
  8
_0-2_LAYER1
  6
CONTINUOUS
 62
    1
 10
7245.560778
 20
6932.1370479999996
 11
7245.560778
 21
7132.1370479999996
  0
LINE
  8
_0-2_LAYER1
  6
CONTINUOUS
 62
    1
 10
7245.560778
 20
7132.1370479999996
 11
7745.560778
 21
7132.1370479999996
  0
LINE
  8
_0-2_LAYER1
  6
CONTINUOUS
 62
    1
 10
7745.560778
 20
7132.1370479999996
 11
7745.560778
 21
6932.1370479999996
  0
LINE
  8
_0-2_LAYER1
  6
CONTINUOUS
 62
    1
 10
7745.560778
 20
6932.1370479999996
 11
7245.560778
 21
6932.1370479999996
  0
LINE
  8
_0-2_LAYER1
  6
CONTINUOUS
 62
    1
 10
8045.560778
 20
6932.1370479999996
 11
8045.560778
 21
7132.1370479999996
  0
LINE
  8
_0-2_LAYER1
  6
CONTINUOUS
 62
    1
 10
8045.560778
 20
7132.1370479999996
 11
8545.5607779999991
 21
7132.1370479999996
  0
LINE
  8
_0-2_LAYER1
  6
CONTINUOUS
 62
    1
 10
8545.5607779999991
 20
7132.1370479999996
 11
8545.5607779999991
 21
6932.1370479999996
  0
LINE
  8
_0-2_LAYER1
  6
CONTINUOUS
 62
    1
 10
8545.5607779999991
 20
6932.1370479999996
 11
8045.560778
 21
6932.1370479999996
  0
LINE
  8
_0-2_LAYER1
  6
CONTINUOUS
 62
    1
 10
8845.5607779999991
 20
6932.1370479999996
 11
8845.5607779999991
 21
7132.1370479999996
  0
LINE
  8
_0-2_LAYER1
  6
CONTINUOUS
 62
    1
 10
8845.5607779999991
 20
7132.1370479999996
 11
9345.5607779999991
 21
7132.1370479999996
  0
LINE
  8
_0-2_LAYER1
  6
CONTINUOUS
 62
    1
 10
9345.5607779999991
 20
7132.1370479999996
 11
9345.5607779999991
 21
6932.1370479999996
  0
LINE
  8
_0-2_LAYER1
  6
CONTINUOUS
 62
    1
 10
9345.5607779999991
 20
6932.1370479999996
 11
8845.5607779999991
 21
6932.1370479999996
  0
LINE
  8
_0-2_LAYER1
  6
CONTINUOUS
 62
    1
 10
9645.5607779999991
 20
6932.1370479999996
 11
9645.5607779999991
 21
7132.1370479999996
  0
LINE
  8
_0-2_LAYER1
  6
CONTINUOUS
 62
    1
 10
9645.5607779999991
 20
7132.1370479999996
 11
10145.560777999999
 21
7132.1370479999996
  0
LINE
  8
_0-2_LAYER1
  6
CONTINUOUS
 62
    1
 10
10145.560777999999
 20
7132.1370479999996
 11
10145.560777999999
 21
6932.1370479999996
  0
LINE
  8
_0-2_LAYER1
  6
CONTINUOUS
 62
    1
 10
10145.560777999999
 20
6932.1370479999996
 11
9645.5607779999991
 21
6932.1370479999996
  0
LINE
  8
_0-2_LAYER1
  6
CONTINUOUS
 62
    1
 10
10445.560777999999
 20
6932.1370479999996
 11
10445.560777999999
 21
7132.1370479999996
  0
LINE
  8
_0-2_LAYER1
  6
CONTINUOUS
 62
    1
 10
10445.560777999999
 20
7132.1370479999996
 11
10945.560777999999
 21
7132.1370479999996
  0
LINE
  8
_0-2_LAYER1
  6
CONTINUOUS
 62
    1
 10
10945.560777999999
 20
7132.1370479999996
 11
10945.560777999999
 21
6932.1370479999996
  0
LINE
  8
_0-2_LAYER1
  6
CONTINUOUS
 62
    1
 10
10945.560777999999
 20
6932.1370479999996
 11
10445.560777999999
 21
6932.1370479999996
  0
LINE
  8
_0-2_LAYER1
  6
CONTINUOUS
 62
    1
 10
11245.560777999999
 20
6932.1370479999996
 11
11245.560777999999
 21
7132.1370479999996
  0
LINE
  8
_0-2_LAYER1
  6
CONTINUOUS
 62
    1
 10
11245.560777999999
 20
7132.1370479999996
 11
11745.560777999999
 21
7132.1370479999996
  0
LINE
  8
_0-2_LAYER1
  6
CONTINUOUS
 62
    1
 10
11745.560777999999
 20
7132.1370479999996
 11
11745.560777999999
 21
6932.1370479999996
  0
LINE
  8
_0-2_LAYER1
  6
CONTINUOUS
 62
    1
 10
11745.560777999999
 20
6932.1370479999996
 11
11245.560777999999
 21
6932.1370479999996
  0
LINE
  8
_0-2_LAYER1
  6
CONTINUOUS
 62
    1
 10
12045.560777999999
 20
6932.1370479999996
 11
12045.560777999999
 21
7132.1370479999996
  0
LINE
  8
_0-2_LAYER1
  6
CONTINUOUS
 62
    1
 10
12045.560777999999
 20
7132.1370479999996
 11
12545.560777999999
 21
7132.1370479999996
  0
LINE
  8
_0-2_LAYER1
  6
CONTINUOUS
 62
    1
 10
12545.560777999999
 20
7132.1370479999996
 11
12545.560777999999
 21
6932.1370479999996
  0
LINE
  8
_0-2_LAYER1
  6
CONTINUOUS
 62
    1
 10
12545.560777999999
 20
6932.1370479999996
 11
12045.560777999999
 21
6932.1370479999996
  0
LINE
  8
_0-2_LAYER1
  6
CONTINUOUS
 62
    1
 10
12845.560777999999
 20
6932.1370479999996
 11
12845.560777999999
 21
7132.1370479999996
  0
LINE
  8
_0-2_LAYER1
  6
CONTINUOUS
 62
    1
 10
12845.560777999999
 20
7132.1370479999996
 11
13345.560777999999
 21
7132.1370479999996
  0
LINE
  8
_0-2_LAYER1
  6
CONTINUOUS
 62
    1
 10
13345.560777999999
 20
7132.1370479999996
 11
13345.560777999999
 21
6932.1370479999996
  0
LINE
  8
_0-2_LAYER1
  6
CONTINUOUS
 62
    1
 10
13345.560777999999
 20
6932.1370479999996
 11
12845.560777999999
 21
6932.1370479999996
  0
LINE
  8
_0-2_LAYER1
  6
CONTINUOUS
 62
    1
 10
13645.560777999999
 20
6932.1370479999996
 11
13645.560777999999
 21
7132.1370479999996
  0
LINE
  8
_0-2_LAYER1
  6
CONTINUOUS
 62
    1
 10
13645.560777999999
 20
7132.1370479999996
 11
14145.560777999999
 21
7132.1370479999996
  0
LINE
  8
_0-2_LAYER1
  6
CONTINUOUS
 62
    1
 10
14145.560777999999
 20
7132.1370479999996
 11
14145.560777999999
 21
6932.1370479999996
  0
LINE
  8
_0-2_LAYER1
  6
CONTINUOUS
 62
    1
 10
14145.560777999999
 20
6932.1370479999996
 11
13645.560777999999
 21
6932.1370479999996
  0
LINE
  8
_0-2_LAYER1
  6
CONTINUOUS
 62
    1
 10
14445.560777999999
 20
6932.1370479999996
 11
14445.560777999999
 21
7132.1370479999996
  0
LINE
  8
_0-2_LAYER1
  6
CONTINUOUS
 62
    1
 10
14445.560777999999
 20
7132.1370479999996
 11
14945.560777999999
 21
7132.1370479999996
  0
LINE
  8
_0-2_LAYER1
  6
CONTINUOUS
 62
    1
 10
14945.560777999999
 20
7132.1370479999996
 11
14945.560777999999
 21
6932.1370479999996
  0
LINE
  8
_0-2_LAYER1
  6
CONTINUOUS
 62
    1
 10
14945.560777999999
 20
6932.1370479999996
 11
14445.560777999999
 21
6932.1370479999996
  0
LINE
  8
_0-2_LAYER1
  6
DASHED
 62
    1
 10
13845.560777999999
 20
7214.1304700000001
 11
13845.560777999999
 21
7414.1304700000001
  0
LINE
  8
_0-2_LAYER1
  6
DASHED
 62
    1
 10
13845.560777999999
 20
7414.1304700000001
 11
14345.560777999999
 21
7414.1304700000001
  0
LINE
  8
_0-2_LAYER1
  6
DASHED
 62
    1
 10
14345.560777999999
 20
7414.1304700000001
 11
14345.560777999999
 21
7214.1304700000001
  0
LINE
  8
_0-2_LAYER1
  6
DASHED
 62
    1
 10
14345.560777999999
 20
7214.1304700000001
 11
13845.560777999999
 21
7214.1304700000001
  0
LINE
  8
_0-2_LAYER1
  6
DASHED
 62
    1
 10
13045.560777999999
 20
7214.1304700000001
 11
13045.560777999999
 21
7414.1304700000001
  0
LINE
  8
_0-2_LAYER1
  6
DASHED
 62
    1
 10
13045.560777999999
 20
7414.1304700000001
 11
13545.560777999999
 21
7414.1304700000001
  0
LINE
  8
_0-2_LAYER1
  6
DASHED
 62
    1
 10
13545.560777999999
 20
7414.1304700000001
 11
13545.560777999999
 21
7214.1304700000001
  0
LINE
  8
_0-2_LAYER1
  6
DASHED
 62
    1
 10
13545.560777999999
 20
7214.1304700000001
 11
13045.560777999999
 21
7214.1304700000001
  0
LINE
  8
_0-2_LAYER1
  6
DASHED
 62
    1
 10
12245.560777999999
 20
7214.1304700000001
 11
12245.560777999999
 21
7414.1304700000001
  0
LINE
  8
_0-2_LAYER1
  6
DASHED
 62
    1
 10
12245.560777999999
 20
7414.1304700000001
 11
12745.560777999999
 21
7414.1304700000001
  0
LINE
  8
_0-2_LAYER1
  6
DASHED
 62
    1
 10
12745.560777999999
 20
7414.1304700000001
 11
12745.560777999999
 21
7214.1304700000001
  0
LINE
  8
_0-2_LAYER1
  6
DASHED
 62
    1
 10
12745.560777999999
 20
7214.1304700000001
 11
12245.560777999999
 21
7214.1304700000001
  0
LINE
  8
_0-2_LAYER1
  6
DASHED
 62
    1
 10
11445.560777999999
 20
7214.1304700000001
 11
11445.560777999999
 21
7414.1304700000001
  0
LINE
  8
_0-2_LAYER1
  6
DASHED
 62
    1
 10
11445.560777999999
 20
7414.1304700000001
 11
11945.560777999999
 21
7414.1304700000001
  0
LINE
  8
_0-2_LAYER1
  6
DASHED
 62
    1
 10
11945.560777999999
 20
7414.1304700000001
 11
11945.560777999999
 21
7214.1304700000001
  0
LINE
  8
_0-2_LAYER1
  6
DASHED
 62
    1
 10
11945.560777999999
 20
7214.1304700000001
 11
11445.560777999999
 21
7214.1304700000001
  0
LINE
  8
_0-2_LAYER1
  6
DASHED
 62
    1
 10
10645.560777999999
 20
7214.1304700000001
 11
10645.560777999999
 21
7414.1304700000001
  0
LINE
  8
_0-2_LAYER1
  6
DASHED
 62
    1
 10
10645.560777999999
 20
7414.1304700000001
 11
11145.560777999999
 21
7414.1304700000001
  0
LINE
  8
_0-2_LAYER1
  6
DASHED
 62
    1
 10
11145.560777999999
 20
7414.1304700000001
 11
11145.560777999999
 21
7214.1304700000001
  0
LINE
  8
_0-2_LAYER1
  6
DASHED
 62
    1
 10
11145.560777999999
 20
7214.1304700000001
 11
10645.560777999999
 21
7214.1304700000001
  0
LINE
  8
_0-2_LAYER1
  6
DASHED
 62
    1
 10
9845.5607779999991
 20
7214.1304700000001
 11
9845.5607779999991
 21
7414.1304700000001
  0
LINE
  8
_0-2_LAYER1
  6
DASHED
 62
    1
 10
9845.5607779999991
 20
7414.1304700000001
 11
10345.560777999999
 21
7414.1304700000001
  0
LINE
  8
_0-2_LAYER1
  6
DASHED
 62
    1
 10
10345.560777999999
 20
7414.1304700000001
 11
10345.560777999999
 21
7214.1304700000001
  0
LINE
  8
_0-2_LAYER1
  6
DASHED
 62
    1
 10
10345.560777999999
 20
7214.1304700000001
 11
9845.5607779999991
 21
7214.1304700000001
  0
LINE
  8
_0-2_LAYER1
  6
DASHED
 62
    1
 10
9045.5607779999991
 20
7214.1304700000001
 11
9045.5607779999991
 21
7414.1304700000001
  0
LINE
  8
_0-2_LAYER1
  6
DASHED
 62
    1
 10
9045.5607779999991
 20
7414.1304700000001
 11
9545.5607779999991
 21
7414.1304700000001
  0
LINE
  8
_0-2_LAYER1
  6
DASHED
 62
    1
 10
9545.5607779999991
 20
7414.1304700000001
 11
9545.5607779999991
 21
7214.1304700000001
  0
LINE
  8
_0-2_LAYER1
  6
DASHED
 62
    1
 10
9545.5607779999991
 20
7214.1304700000001
 11
9045.5607779999991
 21
7214.1304700000001
  0
LINE
  8
_0-2_LAYER1
  6
DASHED
 62
    1
 10
8245.5607779999991
 20
7214.1304700000001
 11
8245.5607779999991
 21
7414.1304700000001
  0
LINE
  8
_0-2_LAYER1
  6
DASHED
 62
    1
 10
8245.5607779999991
 20
7414.1304700000001
 11
8745.5607779999991
 21
7414.1304700000001
  0
LINE
  8
_0-2_LAYER1
  6
DASHED
 62
    1
 10
8745.5607779999991
 20
7414.1304700000001
 11
8745.5607779999991
 21
7214.1304700000001
  0
LINE
  8
_0-2_LAYER1
  6
DASHED
 62
    1
 10
8745.5607779999991
 20
7214.1304700000001
 11
8245.5607779999991
 21
7214.1304700000001
  0
LINE
  8
_0-2_LAYER1
  6
DASHED
 62
    1
 10
7445.560778
 20
7214.1304700000001
 11
7445.560778
 21
7414.1304700000001
  0
LINE
  8
_0-2_LAYER1
  6
DASHED
 62
    1
 10
7445.560778
 20
7414.1304700000001
 11
7945.560778
 21
7414.1304700000001
  0
LINE
  8
_0-2_LAYER1
  6
DASHED
 62
    1
 10
7945.560778
 20
7414.1304700000001
 11
7945.560778
 21
7214.1304700000001
  0
LINE
  8
_0-2_LAYER1
  6
DASHED
 62
    1
 10
7945.560778
 20
7214.1304700000001
 11
7445.560778
 21
7214.1304700000001
  0
LINE
  8
_0-2_LAYER1
  6
DASHED
 62
    1
 10
6645.560778
 20
7214.1304700000001
 11
6645.560778
 21
7414.1304700000001
  0
LINE
  8
_0-2_LAYER1
  6
DASHED
 62
    1
 10
6645.560778
 20
7414.1304700000001
 11
7145.560778
 21
7414.1304700000001
  0
LINE
  8
_0-2_LAYER1
  6
DASHED
 62
    1
 10
7145.560778
 20
7414.1304700000001
 11
7145.560778
 21
7214.1304700000001
  0
LINE
  8
_0-2_LAYER1
  6
DASHED
 62
    1
 10
7145.560778
 20
7214.1304700000001
 11
6645.560778
 21
7214.1304700000001
  0
LINE
  8
_0-2_LAYER1
  6
DASHED
 62
    1
 10
14645.560777999999
 20
7214.1304700000001
 11
14645.560777999999
 21
7414.1304700000001
  0
LINE
  8
_0-2_LAYER1
  6
DASHED
 62
    1
 10
14645.560777999999
 20
7414.1304700000001
 11
15145.560777999999
 21
7414.1304700000001
  0
LINE
  8
_0-2_LAYER1
  6
DASHED
 62
    1
 10
15145.560777999999
 20
7414.1304700000001
 11
15145.560777999999
 21
7214.1304700000001
  0
LINE
  8
_0-2_LAYER1
  6
DASHED
 62
    1
 10
15145.560777999999
 20
7214.1304700000001
 11
14645.560777999999
 21
7214.1304700000001
  0
LINE
  8
_0-2_LAYER1
  6
CONTINUOUS
 62
    1
 10
6545.560778
 20
10588.13047
 11
6545.560778
 21
10388.13047
  0
LINE
  8
_0-2_LAYER1
  6
CONTINUOUS
 62
    1
 10
6545.560778
 20
10588.13047
 11
6985.560778
 21
10588.13047
  0
LINE
  8
_0-2_LAYER1
  6
CONTINUOUS
 62
    1
 10
6985.560778
 20
10588.13047
 11
6985.560778
 21
10388.13047
  0
LINE
  8
_0-2_LAYER1
  6
CONTINUOUS
 62
    1
 10
6985.560778
 20
10588.13047
 11
7875.560778
 21
10588.13047
  0
LINE
  8
_0-2_LAYER1
  6
CONTINUOUS
 62
    1
 10
7875.560778
 20
10588.13047
 11
7875.560778
 21
10388.13047
  0
LINE
  8
_0-2_LAYER1
  6
CONTINUOUS
 62
    1
 10
8765.5607779999991
 20
10588.13047
 11
8765.5607779999991
 21
10388.13047
  0
LINE
  8
_0-2_LAYER1
  6
CONTINUOUS
 62
    1
 10
7875.560778
 20
10588.13047
 11
8765.5607779999991
 21
10588.13047
  0
LINE
  8
_0-2_LAYER1
  6
CONTINUOUS
 62
    1
 10
8765.5607779999991
 20
10588.13047
 11
9655.5607779999991
 21
10588.13047
  0
LINE
  8
_0-2_LAYER1
  6
CONTINUOUS
 62
    1
 10
9655.5607779999991
 20
10588.13047
 11
9655.5607779999991
 21
10388.13047
  0
LINE
  8
_0-2_LAYER1
  6
CONTINUOUS
 62
    1
 10
10545.560777999999
 20
10588.13047
 11
10545.560777999999
 21
10388.13047
  0
LINE
  8
_0-2_LAYER1
  6
CONTINUOUS
 62
    1
 10
9655.5607779999991
 20
10588.13047
 11
10545.560777999999
 21
10588.13047
  0
LINE
  8
_0-2_LAYER1
  6
CONTINUOUS
 62
    1
 10
11435.560777999999
 20
10588.13047
 11
11435.560777999999
 21
10388.13047
  0
LINE
  8
_0-2_LAYER1
  6
CONTINUOUS
 62
    1
 10
10545.560777999999
 20
10588.13047
 11
11435.560777999999
 21
10588.13047
  0
LINE
  8
_0-2_LAYER1
  6
CONTINUOUS
 62
    1
 10
12325.560777999999
 20
10588.13047
 11
12325.560777999999
 21
10388.13047
  0
LINE
  8
_0-2_LAYER1
  6
CONTINUOUS
 62
    1
 10
11435.560777999999
 20
10588.13047
 11
12325.560777999999
 21
10588.13047
  0
LINE
  8
_0-2_LAYER1
  6
CONTINUOUS
 62
    1
 10
12325.560777999999
 20
10588.13047
 11
13215.560777999999
 21
10588.13047
  0
LINE
  8
_0-2_LAYER1
  6
CONTINUOUS
 62
    1
 10
13215.560777999999
 20
10588.13047
 11
13215.560777999999
 21
10388.13047
  0
LINE
  8
_0-2_LAYER1
  6
CONTINUOUS
 62
    1
 10
14105.560777999999
 20
10588.13047
 11
14105.560777999999
 21
10388.13047
  0
LINE
  8
_0-2_LAYER1
  6
CONTINUOUS
 62
    1
 10
13215.560777999999
 20
10588.13047
 11
14105.560777999999
 21
10588.13047
  0
LINE
  8
_0-2_LAYER1
  6
CONTINUOUS
 62
    1
 10
14995.560777999999
 20
10588.13047
 11
14995.560777999999
 21
10388.13047
  0
LINE
  8
_0-2_LAYER1
  6
CONTINUOUS
 62
    1
 10
14105.560777999999
 20
10588.13047
 11
14995.560777999999
 21
10588.13047
  0
LINE
  8
_0-2_LAYER1
  6
CONTINUOUS
 62
    1
 10
15445.560777999999
 20
10588.13047
 11
15445.560777999999
 21
10388.13047
  0
LINE
  8
_0-2_LAYER1
  6
CONTINUOUS
 62
    1
 10
14995.560777999999
 20
10588.13047
 11
15445.560777999999
 21
10588.13047
  0
LINE
  8
_0-2_LAYER1
  6
CONTINUOUS
 62
    1
 10
15445.560777999999
 20
10788.13047
 11
15445.560777999999
 21
10588.13047
  0
LINE
  8
_0-2_LAYER1
  6
CONTINUOUS
 62
    1
 10
15445.560777999999
 20
10788.13047
 11
6545.560778
 21
10788.13047
  0
LINE
  8
_0-2_LAYER1
  6
CONTINUOUS
 62
    1
 10
6445.560778
 20
10788.13047
 11
6445.560778
 21
10388.13047
  0
LINE
  8
_0-2_LAYER1
  6
CONTINUOUS
 62
    1
 10
6545.560778
 20
10788.13047
 11
6545.560778
 21
10588.13047
  0
LINE
  8
_0-2_LAYER1
  6
CONTINUOUS
 62
    1
 10
6445.560778
 20
10788.13047
 11
6545.560778
 21
10788.13047
  0
LINE
  8
_0-2_LAYER1
  6
CONTINUOUS
 62
    1
 10
6545.560778
 20
8728.1304700000001
 11
6545.560778
 21
8928.1304700000001
  0
LINE
  8
_0-2_LAYER1
  6
CONTINUOUS
 62
    1
 10
7995.560778
 20
8728.1304700000001
 11
7995.560778
 21
8928.1304700000001
  0
LINE
  8
_0-2_LAYER1
  6
CONTINUOUS
 62
    1
 10
6545.560778
 20
8728.1304700000001
 11
7995.560778
 21
8728.1304700000001
  0
LINE
  8
_0-2_LAYER1
  6
CONTINUOUS
 62
    1
 10
9995.5607779999991
 20
8728.1304700000001
 11
9995.5607779999991
 21
8928.1304700000001
  0
LINE
  8
_0-2_LAYER1
  6
CONTINUOUS
 62
    1
 10
7995.560778
 20
8728.1304700000001
 11
9995.5607779999991
 21
8728.1304700000001
  0
LINE
  8
_0-2_LAYER1
  6
CONTINUOUS
 62
    1
 10
9995.5607779999991
 20
8728.1304700000001
 11
11995.560777999999
 21
8728.1304700000001
  0
LINE
  8
_0-2_LAYER1
  6
CONTINUOUS
 62
    1
 10
11995.560777999999
 20
8728.1304700000001
 11
11995.560777999999
 21
8928.1304700000001
  0
LINE
  8
_0-2_LAYER1
  6
CONTINUOUS
 62
    1
 10
13995.560777999999
 20
8728.1304700000001
 11
13995.560777999999
 21
8928.1304700000001
  0
LINE
  8
_0-2_LAYER1
  6
CONTINUOUS
 62
    1
 10
11995.560777999999
 20
8728.1304700000001
 11
13995.560777999999
 21
8728.1304700000001
  0
LINE
  8
_0-2_LAYER1
  6
CONTINUOUS
 62
    1
 10
15445.560777999999
 20
8728.1304700000001
 11
15445.560777999999
 21
8928.1304700000001
  0
LINE
  8
_0-2_LAYER1
  6
CONTINUOUS
 62
    1
 10
13995.560777999999
 20
8728.1304700000001
 11
15445.560777999999
 21
8728.1304700000001
  0
LINE
  8
_0-2_LAYER1
  6
CONTINUOUS
 62
    1
 10
9845.5607779999991
 20
8804.1304700000001
 11
9845.5607779999991
 21
9004.1304700000001
  0
LINE
  8
_0-2_LAYER1
  6
CONTINUOUS
 62
    1
 10
10145.560777999999
 20
8804.1304700000001
 11
10145.560777999999
 21
9004.1304700000001
  0
LINE
  8
_0-2_LAYER1
  6
CONTINUOUS
 62
    1
 10
9845.5607779999991
 20
8804.1304700000001
 11
10145.560777999999
 21
8804.1304700000001
  0
LINE
  8
_0-2_LAYER1
  6
CONTINUOUS
 62
    1
 10
10478.921909999999
 20
9055.1304700000001
 11
10278.921909999999
 21
9055.1304700000001
  0
LINE
  8
_0-2_LAYER1
  6
CONTINUOUS
 62
    1
 10
10478.921909999999
 20
9255.1304700000001
 11
10278.921909999999
 21
9255.1304700000001
  0
LINE
  8
_0-2_LAYER1
  6
CONTINUOUS
 62
    1
 10
10478.921909999999
 20
9055.1304700000001
 11
10478.921909999999
 21
9255.1304700000001
  0
LINE
  8
_0-2_LAYER1
  6
CONTINUOUS
 62
    1
 10
16400
 20
400
 11
16400
 21
11480
  0
LINE
  8
_0-2_LAYER1
  6
CONTINUOUS
 62
    1
 10
16400
 20
11480
 11
400
 21
11480
  0
LINE
  8
_0-2_LAYER1
  6
CONTINUOUS
 62
    1
 10
400
 20
11480
 11
400
 21
400
  0
LINE
  8
_0-2_LAYER1
  6
CONTINUOUS
 62
    1
 10
400
 20
400
 11
16400
 21
400
  0
LINE
  8
_0-2_LAYER1
  6
CONTINUOUS
 62
    1
 10
6545.560778
 20
7349.2877719999997
 11
15345.560777999999
 21
7349.2877719999997
  0
TEXT
  8
_0-2_LAYER1
 62
    7
 10
5261.5607780000009
 20
8884.1304700000001
 40
140
 41
0.8
 50
0
  1
水抜き穴5φ
  0
CIRCLE
  8
_0-2_LAYER1
  6
CONTINUOUS
 62
    1
 10
14595.560777999999
 20
9760.1304700000001
 40
25
  0
CIRCLE
  8
_0-2_LAYER1
  6
CONTINUOUS
 62
    1
 10
13795.560777999999
 20
9480.1304700000001
 40
25
  0
CIRCLE
  8
_0-2_LAYER1
  6
CONTINUOUS
 62
    1
 10
12995.560777999999
 20
9760.1304700000001
 40
25
  0
CIRCLE
  8
_0-2_LAYER1
  6
CONTINUOUS
 62
    1
 10
12195.560777999999
 20
9480.1304700000001
 40
25
  0
CIRCLE
  8
_0-2_LAYER1
  6
CONTINUOUS
 62
    1
 10
11395.560777999999
 20
9760.1304700000001
 40
25
  0
CIRCLE
  8
_0-2_LAYER1
  6
CONTINUOUS
 62
    1
 10
10595.560777999999
 20
9480.1304700000001
 40
25
  0
CIRCLE
  8
_0-2_LAYER1
  6
CONTINUOUS
 62
    1
 10
9795.5607779999991
 20
9760.1304700000001
 40
25
  0
CIRCLE
  8
_0-2_LAYER1
  6
CONTINUOUS
 62
    1
 10
8995.5607779999991
 20
9480.1304700000001
 40
25
  0
CIRCLE
  8
_0-2_LAYER1
  6
CONTINUOUS
 62
    1
 10
8195.5607779999991
 20
9760.1304700000001
 40
25
  0
CIRCLE
  8
_0-2_LAYER1
  6
CONTINUOUS
 62
    1
 10
7395.560778
 20
9480.1304700000001
 40
25
  0
LINE
  8
_0-2_LAYER1
  6
CONTINUOUS
 62
    1
 10
7395.560778
 20
9480.1304700000001
 11
5996.5607780000009
 21
8884.1304700000001
  0
LINE
  8
_0-2_LAYER1
  6
CONTINUOUS
 62
    1
 10
5996.5607780000009
 20
8884.1304700000001
 11
5261.5607780000009
 21
8884.1304700000001
  0
CIRCLE
  8
_0-2_LAYER1
  6
CONTINUOUS
 62
    1
 10
4058.5101616045517
 20
7014.1304700000001
 40
10
  0
LINE
  8
_0-2_LAYER1
  6
CONTINUOUS
 62
    3
 10
3492.5101616045513
 20
6797.1304700000001
 11
3822.6482996045506
 21
6928.1513500000001
  0
ARC
  8
_0-2_LAYER1
  6
CONTINUOUS
 62
    3
 10
3821.1727836045516
 20
6931.8692600000013
 40
4
 50
291.64648699999998
 51
0
  0
LINE
  8
_0-2_LAYER1
  6
CONTINUOUS
 62
    3
 10
3493.5101616045517
 20
6794.1304700000001
 11
3945.1569436045515
 21
6974.4096479999998
  0
ARC
  8
_0-2_LAYER1
  6
CONTINUOUS
 62
    3
 10
3943.6740726045518
 20
6978.1246300000003
 40
4
 50
291.75989099999998
 51
359.93360000000001
  0
ARC
  8
_0-2_LAYER1
  6
CONTINUOUS
 62
    3
 10
3821.1727836045516
 20
6933.5339409999997
 40
8
 50
291.75989099999998
 51
0
  0
LINE
  8
_0-2_LAYER1
  6
CONTINUOUS
 62
    3
 10
3494.5101616045522
 20
6789.1304700000001
 11
3946.6356866045521
 21
6969.4143430000004
  0
LINE
  8
_0-2_LAYER1
  6
CONTINUOUS
 62
    3
 10
3494.5101616045522
 20
6789.1304700000001
 11
3492.5101616045513
 21
6797.1304700000001
  0
LINE
  8
_0-2_LAYER1
  6
CONTINUOUS
 62
    3
 10
3825.1727836045511
 20
6974.1304700000001
 11
3825.1727836045511
 21
6972.1304700000001
  0
LINE
  8
_0-2_LAYER1
  6
CONTINUOUS
 62
    3
 10
4626.5101616045513
 20
6797.1304700000001
 11
4295.6972686045519
 21
6928.4191380000002
  0
ARC
  8
_0-2_LAYER1
  6
CONTINUOUS
 62
    3
 10
4297.1727836045511
 20
6932.1370479999996
 40
4
 50
180
 51
248.35351299999999
  0
LINE
  8
_0-2_LAYER1
  6
CONTINUOUS
 62
    3
 10
4625.5101616045513
 20
6794.1304700000001
 11
4173.1899126045519
 21
6974.6784680000001
  0
ARC
  8
_0-2_LAYER1
  6
CONTINUOUS
 62
    3
 10
4297.1727836045511
 20
6933.8032759999996
 40
8
 50
180
 51
248.24010899999999
  0
LINE
  8
_0-2_LAYER1
  6
CONTINUOUS
 62
    3
 10
4624.5101616045513
 20
6789.1304700000001
 11
4171.7221156045507
 21
6968.733244
  0
LINE
  8
_0-2_LAYER1
  6
CONTINUOUS
 62
    3
 10
4293.1727836045511
 20
6974.1304700000001
 11
4293.1727836045511
 21
6972.1304700000001
  0
LINE
  8
_0-2_LAYER1
  6
CONTINUOUS
 62
    3
 10
4626.5101616045513
 20
6797.1304700000001
 11
4624.5101616045513
 21
6789.1304700000001
  0
LINE
  8
_0-2_LAYER1
  6
DASHED
 62
    1
 10
4058.5101616045517
 20
7014.1304700000001
 11
4171.7221156045507
 21
6968.733244
  0
LINE
  8
_0-2_LAYER1
  6
DASHED
 62
    1
 10
4058.5101616045517
 20
7014.1304700000001
 11
3946.6472946045519
 21
6969.3853230000004
  0
LINE
  8
_0-2_LAYER1
  6
DASHED
 62
    3
 10
4171.0101616045522
 20
7218.1304700000001
 11
4171.0101616045522
 21
7410.1304700000001
  0
LINE
  8
_0-2_LAYER1
  6
DASHED
 62
    3
 10
4167.0101616045513
 20
7410.1304700000001
 11
4167.0101616045513
 21
7218.1304700000001
  0
LINE
  8
_0-2_LAYER1
  6
DASHED
 62
    3
 10
3952.0101616045513
 20
7410.1304700000001
 11
3952.0101616045513
 21
7218.1304700000001
  0
LINE
  8
_0-2_LAYER1
  6
DASHED
 62
    3
 10
3948.0101616045517
 20
7218.1304700000001
 11
3948.0101616045517
 21
7410.1304700000001
  0
LINE
  8
_0-2_LAYER1
  6
CONTINUOUS
 62
    3
 10
3952.0101616045513
 20
7218.1304700000001
 11
3951.6725816045509
 21
6976.8360910000001
  0
ARC
  8
_0-2_LAYER1
  6
CONTINUOUS
 62
    3
 10
3943.6725876045512
 20
6976.845362
 40
8
 50
291.73951299999999
 51
359.93359999999996
  0
LINE
  8
_0-2_LAYER1
  6
CONTINUOUS
 62
    3
 10
4285.5101616045513
 20
7619.1304700000001
 11
4285.5101616045513
 21
7426.1304700000001
  0
LINE
  8
_0-2_LAYER1
  6
CONTINUOUS
 62
    3
 10
3833.5101616045517
 20
7619.1304700000001
 11
3833.5101616045517
 21
7426.1304700000001
  0
LINE
  8
_0-2_LAYER1
  6
CONTINUOUS
 62
    3
 10
3829.5101616045513
 20
7619.1304700000001
 11
3833.5101616045517
 21
7619.1304700000001
  0
LINE
  8
_0-2_LAYER1
  6
CONTINUOUS
 62
    3
 10
4285.5101616045513
 20
7619.1304700000001
 11
4289.5101616045513
 21
7619.1304700000001
  0
LINE
  8
_0-2_LAYER1
  6
CONTINUOUS
 62
    3
 10
3825.5101616045517
 20
7615.1304700000001
 11
3829.5101616045513
 21
7615.1304700000001
  0
LINE
  8
_0-2_LAYER1
  6
CONTINUOUS
 62
    3
 10
4289.5101616045513
 20
7615.1304700000001
 11
4293.5101616045522
 21
7615.1304700000001
  0
LINE
  8
_0-2_LAYER1
  6
CONTINUOUS
 62
    3
 10
4281.5101616045513
 20
7418.1304700000001
 11
3837.5101616045513
 21
7418.1304700000001
  0
LINE
  8
_0-2_LAYER1
  6
CONTINUOUS
 62
    3
 10
4281.5101616045513
 20
7422.1304700000001
 11
3837.5101616045513
 21
7422.1304700000001
  0
LINE
  8
_0-2_LAYER1
  6
CONTINUOUS
 62
    3
 10
4289.5101616045513
 20
7619.1304700000001
 11
4289.5101616045513
 21
7426.1304700000001
  0
LINE
  8
_0-2_LAYER1
  6
CONTINUOUS
 62
    3
 10
3829.5101616045513
 20
7619.1304700000001
 11
3829.5101616045513
 21
7426.1304700000001
  0
LINE
  8
_0-2_LAYER1
  6
CONTINUOUS
 62
    3
 10
4293.5101616045522
 20
7615.1304700000001
 11
4293.5101616045522
 21
7426.1304700000001
  0
LINE
  8
_0-2_LAYER1
  6
CONTINUOUS
 62
    3
 10
3825.5101616045517
 20
7615.1304700000001
 11
3825.5101616045517
 21
7426.1304700000001
  0
ARC
  8
_0-2_LAYER1
  6
CONTINUOUS
 62
    3
 10
3837.5101616045513
 20
7426.1304700000001
 40
12
 50
180
 51
270
  0
LINE
  8
_0-2_LAYER1
  6
CONTINUOUS
 62
    3
 10
4167.0101616045513
 20
7218.1304700000001
 11
4166.6718206045516
 21
6976.1788630000001
  0
ARC
  8
_0-2_LAYER1
  6
CONTINUOUS
 62
    3
 10
4174.6718146045514
 20
6976.1695920000002
 40
8
 50
179.93360000000001
 51
248.36376699999997
  0
LINE
  8
_0-2_LAYER1
  6
CONTINUOUS
 62
    3
 10
4170.6727836045511
 20
7132.8169879999996
 11
4170.6727836045511
 21
6978.3934509999999
  0
ARC
  8
_0-2_LAYER1
  6
CONTINUOUS
 62
    3
 10
4174.6727836045511
 20
6978.3934509999999
 40
4
 50
180
 51
248.24010899999999
  0
ARC
  8
_0-2_LAYER1
  6
CONTINUOUS
 62
    3
 10
4174.6727836045511
 20
6978.3934509999999
 40
4
 50
180
 51
248.24010899999999
  0
LINE
  8
_0-2_LAYER1
  6
CONTINUOUS
 62
    3
 10
4170.6727836045511
 20
7132.8169879999996
 11
4171.0101616045522
 21
7218.1304700000001
  0
LINE
  8
_0-2_LAYER1
  6
CONTINUOUS
 62
    3
 10
3948.0101616045517
 20
7218.1304700000001
 11
3947.6740696045508
 21
6978.1199939999997
  0
LINE
  8
_0-2_LAYER1
  6
CONTINUOUS
 62
    3
 10
3829.5101616045513
 20
7343.2793990000009
 11
3829.1727836045516
 21
7133.8692600000004
  0
ARC
  8
_0-2_LAYER1
  6
CONTINUOUS
 62
    3
 10
3833.5101616045517
 20
7343.2793990000009
 40
4
 50
132.997467
 51
180
  0
LINE
  8
_0-2_LAYER1
  6
CONTINUOUS
 62
    3
 10
4293.1727836045511
 20
7133.8692600000004
 11
4293.5101616045522
 21
7343.2745409999998
  0
LINE
  8
_0-2_LAYER1
  6
CONTINUOUS
 62
    3
 10
3825.5101616045517
 20
7343.2793990000009
 11
3825.1727836045511
 21
7133.8692600000004
  0
ARC
  8
_0-2_LAYER1
  6
CONTINUOUS
 62
    3
 10
3833.5101616045517
 20
7343.2793990000009
 40
8
 50
132.997467
 51
180
  0
LINE
  8
_0-2_LAYER1
  6
CONTINUOUS
 62
    3
 10
4163.0101616045513
 20
7414.1304700000001
 11
3956.0101616045517
 21
7414.1304700000001
  0
ARC
  8
_0-2_LAYER1
  6
CONTINUOUS
 62
    3
 10
4281.5101616045513
 20
7426.1304700000001
 40
4
 50
270
 51
0
  0
ARC
  8
_0-2_LAYER1
  6
CONTINUOUS
 62
    3
 10
4281.5101616045513
 20
7426.1304700000001
 40
8
 50
270
 51
0
  0
LINE
  8
_0-2_LAYER1
  6
CONTINUOUS
 62
    3
 10
4269.5101616045513
 20
7418.1304700000001
 11
4253.5101616045522
 21
7418.1304700000001
  0
ARC
  8
_0-2_LAYER1
  6
CONTINUOUS
 62
    3
 10
4163.0101616045513
 20
7410.1304700000001
 40
4
 50
0
 51
90
  0
ARC
  8
_0-2_LAYER1
  6
CONTINUOUS
 62
    3
 10
3956.0101616045517
 20
7410.1304700000001
 40
4
 50
90
 51
180
  0
LINE
  8
_0-2_LAYER1
  6
CONTINUOUS
 62
    3
 10
4163.0101616045513
 20
7418.1304700000001
 11
3956.0101616045517
 21
7418.1304700000001
  0
ARC
  8
_0-2_LAYER1
  6
CONTINUOUS
 62
    3
 10
4163.0101616045513
 20
7410.1304700000001
 40
8
 50
0
 51
90
  0
ARC
  8
_0-2_LAYER1
  6
CONTINUOUS
 62
    3
 10
3956.0101616045517
 20
7410.1304700000001
 40
8
 50
90
 51
180
  0
ARC
  8
_0-2_LAYER1
  6
CONTINUOUS
 62
    3
 10
3837.5101616045513
 20
7426.1304700000001
 40
8
 50
180
 51
270
  0
ARC
  8
_0-2_LAYER1
  6
CONTINUOUS
 62
    3
 10
3837.5101616045513
 20
7426.1304700000001
 40
4
 50
180
 51
270
  0
LINE
  8
_0-2_LAYER1
  6
CONTINUOUS
 62
    3
 10
3855.5101616045517
 20
7418.1304700000001
 11
3885.0650566045515
 21
7418.1304700000001
  0
LINE
  8
_0-2_LAYER1
  6
CONTINUOUS
 62
    3
 10
4289.5101616045513
 20
7343.276969999999
 11
4289.172783604552
 21
7133.8692600000004
  0
LINE
  8
_0-2_LAYER1
  6
DASHED
 62
    3
 10
4293.1727836045511
 20
7133.8692600000004
 11
4293.1727836045511
 21
6932.1370479999996
  0
LINE
  8
_0-2_LAYER1
  6
DASHED
 62
    3
 10
4289.172783604552
 20
6933.8032759999996
 11
4289.172783604552
 21
7133.8692600000004
  0
LINE
  8
_0-2_LAYER1
  6
DASHED
 62
    3
 10
3829.1727836045516
 20
6933.5339409999997
 11
3829.1727836045516
 21
7133.8692600000004
  0
LINE
  8
_0-2_LAYER1
  6
DASHED
 62
    3
 10
3825.1727836045511
 20
7133.8692600000004
 11
3825.1727836045511
 21
6931.8692600000013
  0
LINE
  8
_0-2_LAYER1
  6
CONTINUOUS
 62
    3
 10
4259.5101616045513
 20
7422.1304700000001
 11
3859.5101616045513
 21
7422.1304700000001
  0
LINE
  8
_0-2_LAYER1
  6
CONTINUOUS
 62
    1
 10
5256.1768286045526
 20
7619.1304700000001
 11
4545.5306326045511
 21
7619.1304700000001
  0
LINE
  8
_0-2_LAYER1
  6
CONTINUOUS
 62
    1
 10
5256.1768286045526
 20
7414.1304700000001
 11
5256.1768286045526
 21
7619.1304700000001
  0
TEXT
  8
_0-2_LAYER1
 62
    7
 10
5236.1768286045526
 20
7411.6304700000001
 40
140
 41
0.8
 50
90
  1
22.5
  0
LINE
  8
_0-2_LAYER1
  6
CONTINUOUS
 62
    3
 10
3891.5101616045513
 20
7414.1304700000001
 11
3837.5101616045513
 21
7414.1304700000001
  0
LINE
  8
_0-2_LAYER1
  6
CONTINUOUS
 62
    3
 10
3894.2380256045508
 20
7407.2049349999998
 11
3828.0544336045518
 21
7349.1304700000001
  0
ARC
  8
_0-2_LAYER1
  6
CONTINUOUS
 62
    3
 10
3891.5101616045513
 20
7410.1304700000001
 40
4
 50
312.99746699999997
 51
89.999999999999972
  0
LINE
  8
_0-2_LAYER1
  6
CONTINUOUS
 62
    3
 10
3896.9658896045512
 20
7404.2793989999991
 11
3830.7822976045518
 21
7346.2049349999998
  0
ARC
  8
_0-2_LAYER1
  6
CONTINUOUS
 62
    3
 10
3891.5101616045513
 20
7410.1304700000001
 40
8
 50
312.99746699999997
 51
89.999999999999972
  0
LINE
  8
_0-2_LAYER1
  6
CONTINUOUS
 62
    3
 10
3885.0650566045515
 20
7418.1304700000001
 11
3837.5101616045513
 21
7418.1304700000001
  0
LINE
  8
_0-2_LAYER1
  6
CONTINUOUS
 62
    3
 10
4222.0544336045514
 20
7404.2793989999991
 11
4288.1483926045512
 21
7346.2835859999996
  0
ARC
  8
_0-2_LAYER1
  6
CONTINUOUS
 62
    3
 10
4285.5101616045513
 20
7343.276969999999
 40
4
 50
0
 51
48.733848999999999
  0
ARC
  8
_0-2_LAYER1
  6
CONTINUOUS
 62
    3
 10
4227.5101616045513
 20
7410.1304700000001
 40
8
 50
90
 51
227.002533
  0
LINE
  8
_0-2_LAYER1
  6
CONTINUOUS
 62
    3
 10
4224.7822976045518
 20
7407.2049349999998
 11
4290.786623604552
 21
7349.2877719999997
  0
ARC
  8
_0-2_LAYER1
  6
CONTINUOUS
 62
    3
 10
4285.5101616045513
 20
7343.2745409999998
 40
8
 50
0
 51
48.733849000000021
  0
ARC
  8
_0-2_LAYER1
  6
CONTINUOUS
 62
    3
 10
4227.5101616045513
 20
7410.1304700000001
 40
4
 50
90
 51
227.002533
  0
ARC
  8
_0-2_LAYER1
  6
CONTINUOUS
 62
    3
 10
4285.5101616045513
 20
7343.2793990000009
 40
4
 50
0
 51
47.002533
  0
ARC
  8
_0-2_LAYER1
  6
CONTINUOUS
 62
    3
 10
4285.5101616045513
 20
7343.2793990000009
 40
8
 50
0
 51
47.002533
  0
LINE
  8
_0-2_LAYER1
  6
CONTINUOUS
 62
    3
 10
4227.5101616045513
 20
7414.1304700000001
 11
4281.5101616045513
 21
7414.1304700000001
  0
ARC
  8
_0-2_LAYER1
  6
CONTINUOUS
 62
    3
 10
4281.5101616045513
 20
7426.1304700000001
 40
12
 50
270
 51
0
  0
LINE
  8
_0-2_LAYER1
  6
CONTINUOUS
 62
    1
 10
5256.1768286045526
 20
7414.1304700000001
 11
4545.5306326045511
 21
7414.1304700000001
  0
LINE
  8
_0-2_LAYER1
  6
CONTINUOUS
 62
    1
 10
4394.0794326045507
 20
7186.3952470000004
 11
4320.3036726045511
 21
7000.4997460000004
  0
LINE
  8
_0-2_LAYER1
  6
CONTINUOUS
 62
    1
 10
4728.3480386045521
 20
7053.7351209999997
 11
4654.5722786045517
 21
6867.8396199999997
  0
LINE
  8
_0-2_LAYER1
  6
CONTINUOUS
 62
    1
 10
4394.0794326045507
 20
7186.3952470000004
 11
4728.3480386045521
 21
7053.7351209999997
  0
TEXT
  8
_0-2_LAYER1
 62
    7
 10
4519.7937476045518
 20
7158.0208830000001
 40
140
 41
0.8
 50
-21.646500000000035
  1
40
  0
LINE
  8
_0-2_LAYER1
  6
CONTINUOUS
 62
    1
 10
3947.0101616045513
 20
6466.6457620000001
 11
3947.0101616045513
 21
6666.6457620000001
  0
LINE
  8
_0-2_LAYER1
  6
CONTINUOUS
 62
    1
 10
4170.0101616045513
 20
6466.6457620000001
 11
4170.0101616045513
 21
6666.6457620000001
  0
LINE
  8
_0-2_LAYER1
  6
CONTINUOUS
 62
    1
 10
3947.0101616045513
 20
6466.6457620000001
 11
4170.0101616045513
 21
6466.6457620000001
  0
TEXT
  8
_0-2_LAYER1
 62
    7
 10
3953.5101616045517
 20
6486.6457620000001
 40
140
 41
0.8
 50
0
  1
22.3
  0
LINE
  8
_0-2_LAYER1
  6
CONTINUOUS
 62
    1
 10
3824.5101616045513
 20
6266.6457620000001
 11
3824.5101616045513
 21
6666.6457620000001
  0
LINE
  8
_0-2_LAYER1
  6
CONTINUOUS
 62
    1
 10
4292.5101616045513
 20
6266.6457620000001
 11
4292.5101616045513
 21
6666.6457620000001
  0
LINE
  8
_0-2_LAYER1
  6
CONTINUOUS
 62
    1
 10
3824.5101616045513
 20
6266.6457620000001
 11
4292.5101616045513
 21
6266.6457620000001
  0
TEXT
  8
_0-2_LAYER1
 62
    7
 10
4006.0101616045517
 20
6286.6457620000001
 40
140
 41
0.8
 50
0
  1
46
  0
LINE
  8
_0-2_LAYER1
  6
CONTINUOUS
 62
    1
 10
3493.8625696045519
 20
6066.6457620000001
 11
3493.8625696045519
 21
6666.6457620000001
  0
LINE
  8
_0-2_LAYER1
  6
CONTINUOUS
 62
    1
 10
4623.1577536045515
 20
6066.6457620000001
 11
4623.1577536045515
 21
6666.6457620000001
  0
LINE
  8
_0-2_LAYER1
  6
CONTINUOUS
 62
    1
 10
3493.8625696045519
 20
6066.6457620000001
 11
4623.1577536045515
 21
6066.6457620000001
  0
TEXT
  8
_0-2_LAYER1
 62
    7
 10
3927.2601616045517
 20
6086.6457620000001
 40
140
 41
0.8
 50
0
  1
117.4
  0
LINE
  8
_0-2_LAYER1
  6
CONTINUOUS
 62
    1
 10
3835.5101616045517
 20
7874.9570030000004
 11
3835.5101616045517
 21
7714.4634800000003
  0
LINE
  8
_0-2_LAYER1
  6
CONTINUOUS
 62
    1
 10
4283.5101616045522
 20
7874.9570030000004
 11
4283.5101616045522
 21
7714.4634800000003
  0
LINE
  8
_0-2_LAYER1
  6
CONTINUOUS
 62
    1
 10
3835.5101616045517
 20
7874.9570030000004
 11
4283.5101616045522
 21
7874.9570030000004
  0
TEXT
  8
_0-2_LAYER1
 62
    7
 10
4007.0101616045513
 20
7894.9570030000004
 40
140
 41
0.8
 50
0
  1
44
  0
LINE
  8
_0-2_LAYER1
  6
CONTINUOUS
 62
    1
 10
5255.9052926045524
 20
7013.2881509999988
 11
4126.1994026045513
 21
7014.0828529999999
  0
LINE
  8
_0-2_LAYER1
  6
CONTINUOUS
 62
    1
 10
5256.2220906045513
 20
7413.6305270000003
 11
5056.222140604551
 21
7413.7712190000002
  0
LINE
  8
_0-2_LAYER1
  6
CONTINUOUS
 62
    1
 10
5255.9052926045524
 20
7013.2881509999988
 11
5256.2220906045513
 21
7413.6305270000003
  0
TEXT
  8
_0-2_LAYER1
 62
    7
 10
5236.0221896045514
 20
7160.9751820000001
 40
140
 41
0.8
 50
89.954700000000003
  1
40
  0
LINE
  8
_0-2_LAYER1
  6
CONTINUOUS
 62
    3
 10
3967.0101616045522
 20
1879.1304700000001
 11
4152.0101616045522
 21
1979.1304700000001
  0
LINE
  8
_0-2_LAYER1
  6
CONTINUOUS
 62
    3
 10
4159.0101616045522
 20
1349.1304700000001
 11
4085.0101616045513
 21
1349.1304700000001
  0
LINE
  8
_0-2_LAYER1
  6
CONTINUOUS
 62
    3
 10
3960.0101616045513
 20
1871.1304700000001
 11
4078.0101616045517
 21
1355.1304700000003
  0
ARC
  8
_0-2_LAYER1
  6
CONTINUOUS
 62
    3
 10
4085.0101616045513
 20
1356.1304700000001
 40
7
 50
188.53999999999999
 51
270
  0
ARC
  8
_0-2_LAYER1
  6
CONTINUOUS
 62
    3
 10
3967.0101616045522
 20
1872.1304700000001
 40
7
 50
90
 51
188.53
  0
LINE
  8
_0-2_LAYER1
  6
CONTINUOUS
 62
    3
 10
4159.0101616045522
 20
1899.1304700000001
 11
4159.0101616045522
 21
1972.1304700000001
  0
ARC
  8
_0-2_LAYER1
  6
CONTINUOUS
 62
    3
 10
4152.0101616045522
 20
1972.1304700000001
 40
7
 50
0
 51
90
  0
LINE
  8
_0-2_LAYER1
  6
CONTINUOUS
 62
    3
 10
4159.0101616045522
 20
1351.1304700000001
 11
4085.0101616045513
 21
1351.1304700000001
  0
LINE
  8
_0-2_LAYER1
  6
CONTINUOUS
 62
    3
 10
3962.0101616045522
 20
1871.1304700000001
 11
4080.0101616045513
 21
1355.1304700000003
  0
ARC
  8
_0-2_LAYER1
  6
CONTINUOUS
 62
    3
 10
4085.0101616045513
 20
1356.1304700000001
 40
5
 50
188.56999999999999
 51
270
  0
LINE
  8
_0-2_LAYER1
  6
CONTINUOUS
 62
    3
 10
3967.0101616045522
 20
1877.1304700000001
 11
4152.0101616045522
 21
1977.1304700000001
  0
ARC
  8
_0-2_LAYER1
  6
CONTINUOUS
 62
    3
 10
3967.0101616045522
 20
1872.1304700000001
 40
5
 50
90
 51
188.56999999999996
  0
LINE
  8
_0-2_LAYER1
  6
CONTINUOUS
 62
    3
 10
4157.0101616045522
 20
1899.1304700000001
 11
4157.0101616045522
 21
1972.1304700000001
  0
ARC
  8
_0-2_LAYER1
  6
CONTINUOUS
 62
    3
 10
4152.0101616045522
 20
1972.1304700000001
 40
5
 50
0
 51
90
  0
LINE
  8
_0-2_LAYER1
  6
CONTINUOUS
 62
    3
 10
4159.0101616045522
 20
1351.1304700000001
 11
4159.0101616045522
 21
1349.1304700000001
  0
LINE
  8
_0-2_LAYER1
  6
CONTINUOUS
 62
    3
 10
4157.0101616045522
 20
1899.1304700000001
 11
4159.0101616045522
 21
1899.1304700000001
  0
LINE
  8
_0-2_LAYER1
  6
CONTINUOUS
 62
    1
 10
3571.6510416045512
 20
1349.1304700000001
 11
3771.6510416045512
 21
1349.1304700000001
  0
LINE
  8
_0-2_LAYER1
  6
CONTINUOUS
 62
    1
 10
3571.6510416045512
 20
1979.1304700000001
 11
3771.6510416045512
 21
1979.1304700000001
  0
LINE
  8
_0-2_LAYER1
  6
CONTINUOUS
 62
    1
 10
3571.6510416045512
 20
1349.1304700000001
 11
3571.6510416045512
 21
1979.1304700000001
  0
TEXT
  8
_0-2_LAYER1
 62
    7
 10
3551.6510416045512
 20
1611.6304700000001
 40
140
 41
0.8
 50
90
  1
73
  0
LINE
  8
_0-2_LAYER1
  6
CONTINUOUS
 62
    1
 10
3959.0101616045517
 20
2322.4941210000002
 11
3959.0101616045517
 21
2122.4941210000002
  0
LINE
  8
_0-2_LAYER1
  6
CONTINUOUS
 62
    1
 10
4159.0101616045522
 20
2322.4941210000002
 11
4159.0101616045522
 21
2122.4941210000002
  0
LINE
  8
_0-2_LAYER1
  6
CONTINUOUS
 62
    1
 10
3959.0101616045517
 20
2322.4941210000002
 11
4159.0101616045522
 21
2322.4941210000002
  0
TEXT
  8
_0-2_LAYER1
 62
    7
 10
4006.5101616045517
 20
2342.4941210000002
 40
140
 41
0.8
 50
0
  1
20
  0
LINE
  8
_0-2_LAYER1
  6
CONTINUOUS
 62
    1
 10
4591.9920366045526
 20
1899.1304700000001
 11
4391.9920366045526
 21
1899.1304700000001
  0
LINE
  8
_0-2_LAYER1
  6
CONTINUOUS
 62
    1
 10
4591.9920366045526
 20
1979.1304700000001
 11
4391.9920366045526
 21
1979.1304700000001
  0
LINE
  8
_0-2_LAYER1
  6
CONTINUOUS
 62
    1
 10
4591.9920366045526
 20
1899.1304700000001
 11
4591.9920366045526
 21
1979.1304700000001
  0
TEXT
  8
_0-2_LAYER1
 62
    7
 10
4571.9920366045526
 20
1912.8804700000001
 40
140
 41
0.8
 50
90
  1
8
  0
LINE
  8
_0-2_LAYER1
  6
CONTINUOUS
 62
    1
 10
4079.0101616045517
 20
1034.6282040000006
 11
4079.0101616045517
 21
1234.6282040000006
  0
LINE
  8
_0-2_LAYER1
  6
CONTINUOUS
 62
    1
 10
4159.0101616045522
 20
1034.6282040000006
 11
4159.0101616045522
 21
1234.6282040000006
  0
LINE
  8
_0-2_LAYER1
  6
CONTINUOUS
 62
    1
 10
4079.0101616045517
 20
1034.6282040000006
 11
4159.0101616045522
 21
1034.6282040000006
  0
TEXT
  8
_0-2_LAYER1
 62
    7
 10
4092.7601616045517
 20
1054.6282040000006
 40
140
 41
0.8
 50
0
  1
8
  0
TEXT
  8
_0-2_LAYER1
 62
    7
 10
1009.560778
 20
1961.6335828547603
 40
140
 41
0.8
 50
0
  1
ﾌﾟﾚｰﾄ(葺土止め)
  0
TEXT
  8
_0-2_LAYER1
 62
    7
 10
1009.560778
 20
4351.2400701614688
 40
140
 41
0.8
 50
0
  1
使用材料 ポリプロピレン
  0
TEXT
  8
_0-2_LAYER1
 62
    7
 10
1009.560778
 20
4812.0927498563342
 40
140
 41
0.8
 50
0
  1
通気部材
  0
TEXT
  8
_0-2_LAYER1
 62
    7
 10
1009.560778
 20
6750.5324459234616
 40
140
 41
0.8
 50
0
  1
使用材料 SUS304 0.4mm
  0
TEXT
  8
_0-2_LAYER1
 62
    7
 10
1009.560778
 20
7433.6209899506457
 40
140
 41
0.8
 50
0
  1
本体
  0
TEXT
  8
_0-2_LAYER1
 62
    7
 10
1009.560778
 20
9370.035788427791
 40
140
 41
0.8
 50
0
  1
外形寸法表
  0
TEXT
  8
_0-2_LAYER1
 62
    7
 10
1009.560778
 20
1475.1779765101799
 40
140
 41
0.8
 50
0
  1
使用材料 ガルバリウム鋼板　0.3mm
  0
TEXT
  8
_0-2_LAYER1
 62
    7
 10
6416.810778
 20
10808.13047
 40
140
 41
0.8
 50
0
  1
10
  0
TEXT
  8
_0-2_LAYER1
 62
    7
 10
10864.310777999999
 20
10808.13047
 40
140
 41
0.8
 50
0
  1
890
  0
TEXT
  8
_0-2_LAYER1
 62
    7
 10
6686.810778
 20
10608.13047
 40
140
 41
0.8
 50
0
  1
44
  0
TEXT
  8
_0-2_LAYER1
 62
    7
 10
7351.810778
 20
10608.13047
 40
140
 41
0.8
 50
0
  1
89
  0
TEXT
  8
_0-2_LAYER1
 62
    7
 10
8241.8107779999991
 20
10608.13047
 40
140
 41
0.8
 50
0
  1
89
  0
TEXT
  8
_0-2_LAYER1
 62
    7
 10
9131.8107779999991
 20
10608.13047
 40
140
 41
0.8
 50
0
  1
89
  0
TEXT
  8
_0-2_LAYER1
 62
    7
 10
10021.810777999999
 20
10608.13047
 40
140
 41
0.8
 50
0
  1
89
  0
TEXT
  8
_0-2_LAYER1
 62
    7
 10
10911.810777999999
 20
10608.13047
 40
140
 41
0.8
 50
0
  1
89
  0
TEXT
  8
_0-2_LAYER1
 62
    7
 10
11801.810777999999
 20
10608.13047
 40
140
 41
0.8
 50
0
  1
89
  0
TEXT
  8
_0-2_LAYER1
 62
    7
 10
12691.810777999999
 20
10608.13047
 40
140
 41
0.8
 50
0
  1
89
  0
TEXT
  8
_0-2_LAYER1
 62
    7
 10
13581.810777999999
 20
10608.13047
 40
140
 41
0.8
 50
0
  1
89
  0
TEXT
  8
_0-2_LAYER1
 62
    7
 10
14471.810777999999
 20
10608.13047
 40
140
 41
0.8
 50
0
  1
89
  0
TEXT
  8
_0-2_LAYER1
 62
    7
 10
15141.810777999999
 20
10608.13047
 40
140
 41
0.8
 50
0
  1
45
  0
TEXT
  8
_0-2_LAYER1
 62
    7
 10
7139.310778
 20
8748.1304700000001
 40
140
 41
0.8
 50
0
  1
145
  0
TEXT
  8
_0-2_LAYER1
 62
    7
 10
8864.3107779999991
 20
8748.1304700000001
 40
140
 41
0.8
 50
0
  1
200
  0
TEXT
  8
_0-2_LAYER1
 62
    7
 10
9916.8107779999991
 20
8824.1304700000001
 40
140
 41
0.8
 50
0
  1
30
  0
TEXT
  8
_0-2_LAYER1
 62
    7
 10
10458.921909999999
 20
9076.3804700000001
 40
140
 41
0.8
 50
90
  1
20
  0
TEXT
  8
_0-2_LAYER1
 62
    7
 10
10864.310777999999
 20
8748.1304700000001
 40
140
 41
0.8
 50
0
  1
200
  0
TEXT
  8
_0-2_LAYER1
 62
    7
 10
12864.310777999999
 20
8748.1304700000001
 40
140
 41
0.8
 50
0
  1
200
  0
TEXT
  8
_0-2_LAYER1
 62
    7
 10
14589.310777999999
 20
8748.1304700000001
 40
140
 41
0.8
 50
0
  1
145
  0
TEXT
  8
_0-2_LAYER1
 62
    7
 10
1009.560778
 20
10022.13047
 40
280
 41
1
 50
0
  1
青空40型　平板用
  0
LINE
  8
_0-2_LAYER1
  6
CONTINUOUS
 62
    1
 10
6445.560778
 20
5412.3851816578572
 11
15445.560777999999
 21
5412.3851816578572
  0
LINE
  8
_0-2_LAYER1
  6
CONTINUOUS
 62
    1
 10
6445.560778
 20
5308.3851816578581
 11
15445.560777999999
 21
5308.3851816578581
  0
LINE
  8
_0-2_LAYER1
  6
CONTINUOUS
 62
    1
 10
6445.560778
 20
4926.3851816578581
 11
15445.560777999999
 21
4926.3851816578581
  0
LINE
  8
_0-2_LAYER1
  6
CONTINUOUS
 62
    1
 10
6445.560778
 20
4394.3851816578581
 11
15445.560777999999
 21
4394.3851816578581
  0
LINE
  8
_0-2_LAYER1
  6
CONTINUOUS
 62
    1
 10
6445.560778
 20
5412.3851816578572
 11
6445.560778
 21
4394.3851816578581
  0
LINE
  8
_0-2_LAYER1
  6
CONTINUOUS
 62
    1
 10
15445.560777999999
 20
4394.3851816578581
 11
15445.560777999999
 21
5412.3851816578572
  0
LINE
  8
_0-2_LAYER1
  6
CONTINUOUS
 62
    1
 10
7145.560778
 20
5017.3851816578581
 11
7145.560778
 21
5217.3851816578572
  0
LINE
  8
_0-2_LAYER1
  6
CONTINUOUS
 62
    1
 10
7145.560778
 20
5217.3851816578572
 11
6645.560778
 21
5217.3851816578572
  0
LINE
  8
_0-2_LAYER1
  6
CONTINUOUS
 62
    1
 10
6645.560778
 20
5217.3851816578572
 11
6645.560778
 21
5017.3851816578581
  0
LINE
  8
_0-2_LAYER1
  6
CONTINUOUS
 62
    1
 10
6645.560778
 20
5017.3851816578581
 11
7145.560778
 21
5017.3851816578581
  0
LINE
  8
_0-2_LAYER1
  6
CONTINUOUS
 62
    1
 10
7945.560778
 20
5017.3851816578581
 11
7945.560778
 21
5217.3851816578572
  0
LINE
  8
_0-2_LAYER1
  6
CONTINUOUS
 62
    1
 10
7945.560778
 20
5217.3851816578572
 11
7445.560778
 21
5217.3851816578572
  0
LINE
  8
_0-2_LAYER1
  6
CONTINUOUS
 62
    1
 10
7445.560778
 20
5217.3851816578572
 11
7445.560778
 21
5017.3851816578581
  0
LINE
  8
_0-2_LAYER1
  6
CONTINUOUS
 62
    1
 10
7445.560778
 20
5017.3851816578581
 11
7945.560778
 21
5017.3851816578581
  0
LINE
  8
_0-2_LAYER1
  6
CONTINUOUS
 62
    1
 10
8745.5607779999991
 20
5017.3851816578581
 11
8745.5607779999991
 21
5217.3851816578572
  0
LINE
  8
_0-2_LAYER1
  6
CONTINUOUS
 62
    1
 10
8745.5607779999991
 20
5217.3851816578572
 11
8245.5607779999991
 21
5217.3851816578572
  0
LINE
  8
_0-2_LAYER1
  6
CONTINUOUS
 62
    1
 10
8245.5607779999991
 20
5217.3851816578572
 11
8245.5607779999991
 21
5017.3851816578581
  0
LINE
  8
_0-2_LAYER1
  6
CONTINUOUS
 62
    1
 10
8245.5607779999991
 20
5017.3851816578581
 11
8745.5607779999991
 21
5017.3851816578581
  0
LINE
  8
_0-2_LAYER1
  6
CONTINUOUS
 62
    1
 10
9545.5607779999991
 20
5017.3851816578581
 11
9545.5607779999991
 21
5217.3851816578572
  0
LINE
  8
_0-2_LAYER1
  6
CONTINUOUS
 62
    1
 10
9545.5607779999991
 20
5217.3851816578572
 11
9045.5607779999991
 21
5217.3851816578572
  0
LINE
  8
_0-2_LAYER1
  6
CONTINUOUS
 62
    1
 10
9045.5607779999991
 20
5217.3851816578572
 11
9045.5607779999991
 21
5017.3851816578581
  0
LINE
  8
_0-2_LAYER1
  6
CONTINUOUS
 62
    1
 10
9045.5607779999991
 20
5017.3851816578581
 11
9545.5607779999991
 21
5017.3851816578581
  0
LINE
  8
_0-2_LAYER1
  6
CONTINUOUS
 62
    1
 10
10345.560777999999
 20
5017.3851816578581
 11
10345.560777999999
 21
5217.3851816578572
  0
LINE
  8
_0-2_LAYER1
  6
CONTINUOUS
 62
    1
 10
10345.560777999999
 20
5217.3851816578572
 11
9845.5607779999991
 21
5217.3851816578572
  0
LINE
  8
_0-2_LAYER1
  6
CONTINUOUS
 62
    1
 10
9845.5607779999991
 20
5217.3851816578572
 11
9845.5607779999991
 21
5017.3851816578581
  0
LINE
  8
_0-2_LAYER1
  6
CONTINUOUS
 62
    1
 10
9845.5607779999991
 20
5017.3851816578581
 11
10345.560777999999
 21
5017.3851816578581
  0
LINE
  8
_0-2_LAYER1
  6
CONTINUOUS
 62
    1
 10
11145.560777999999
 20
5017.3851816578581
 11
11145.560777999999
 21
5217.3851816578572
  0
LINE
  8
_0-2_LAYER1
  6
CONTINUOUS
 62
    1
 10
11145.560777999999
 20
5217.3851816578572
 11
10645.560777999999
 21
5217.3851816578572
  0
LINE
  8
_0-2_LAYER1
  6
CONTINUOUS
 62
    1
 10
10645.560777999999
 20
5217.3851816578572
 11
10645.560777999999
 21
5017.3851816578581
  0
LINE
  8
_0-2_LAYER1
  6
CONTINUOUS
 62
    1
 10
10645.560777999999
 20
5017.3851816578581
 11
11145.560777999999
 21
5017.3851816578581
  0
LINE
  8
_0-2_LAYER1
  6
CONTINUOUS
 62
    1
 10
11945.560777999999
 20
5017.3851816578581
 11
11945.560777999999
 21
5217.3851816578572
  0
LINE
  8
_0-2_LAYER1
  6
CONTINUOUS
 62
    1
 10
11945.560777999999
 20
5217.3851816578572
 11
11445.560777999999
 21
5217.3851816578572
  0
LINE
  8
_0-2_LAYER1
  6
CONTINUOUS
 62
    1
 10
11445.560777999999
 20
5217.3851816578572
 11
11445.560777999999
 21
5017.3851816578581
  0
LINE
  8
_0-2_LAYER1
  6
CONTINUOUS
 62
    1
 10
11445.560777999999
 20
5017.3851816578581
 11
11945.560777999999
 21
5017.3851816578581
  0
LINE
  8
_0-2_LAYER1
  6
CONTINUOUS
 62
    1
 10
12745.560777999999
 20
5017.3851816578581
 11
12745.560777999999
 21
5217.3851816578572
  0
LINE
  8
_0-2_LAYER1
  6
CONTINUOUS
 62
    1
 10
12745.560777999999
 20
5217.3851816578572
 11
12245.560777999999
 21
5217.3851816578572
  0
LINE
  8
_0-2_LAYER1
  6
CONTINUOUS
 62
    1
 10
12245.560777999999
 20
5217.3851816578572
 11
12245.560777999999
 21
5017.3851816578581
  0
LINE
  8
_0-2_LAYER1
  6
CONTINUOUS
 62
    1
 10
12245.560777999999
 20
5017.3851816578581
 11
12745.560777999999
 21
5017.3851816578581
  0
LINE
  8
_0-2_LAYER1
  6
CONTINUOUS
 62
    1
 10
13545.560777999999
 20
5017.3851816578581
 11
13545.560777999999
 21
5217.3851816578572
  0
LINE
  8
_0-2_LAYER1
  6
CONTINUOUS
 62
    1
 10
13545.560777999999
 20
5217.3851816578572
 11
13045.560777999999
 21
5217.3851816578572
  0
LINE
  8
_0-2_LAYER1
  6
CONTINUOUS
 62
    1
 10
13045.560777999999
 20
5217.3851816578572
 11
13045.560777999999
 21
5017.3851816578581
  0
LINE
  8
_0-2_LAYER1
  6
CONTINUOUS
 62
    1
 10
13045.560777999999
 20
5017.3851816578581
 11
13545.560777999999
 21
5017.3851816578581
  0
LINE
  8
_0-2_LAYER1
  6
CONTINUOUS
 62
    1
 10
14345.560777999999
 20
5017.3851816578581
 11
14345.560777999999
 21
5217.3851816578572
  0
LINE
  8
_0-2_LAYER1
  6
CONTINUOUS
 62
    1
 10
14345.560777999999
 20
5217.3851816578572
 11
13845.560777999999
 21
5217.3851816578572
  0
LINE
  8
_0-2_LAYER1
  6
CONTINUOUS
 62
    1
 10
13845.560777999999
 20
5217.3851816578572
 11
13845.560777999999
 21
5017.3851816578581
  0
LINE
  8
_0-2_LAYER1
  6
CONTINUOUS
 62
    1
 10
13845.560777999999
 20
5017.3851816578581
 11
14345.560777999999
 21
5017.3851816578581
  0
LINE
  8
_0-2_LAYER1
  6
CONTINUOUS
 62
    1
 10
15145.560777999999
 20
5017.3851816578581
 11
15145.560777999999
 21
5217.3851816578572
  0
LINE
  8
_0-2_LAYER1
  6
CONTINUOUS
 62
    1
 10
15145.560777999999
 20
5217.3851816578572
 11
14645.560777999999
 21
5217.3851816578572
  0
LINE
  8
_0-2_LAYER1
  6
CONTINUOUS
 62
    1
 10
14645.560777999999
 20
5217.3851816578572
 11
14645.560777999999
 21
5017.3851816578581
  0
LINE
  8
_0-2_LAYER1
  6
CONTINUOUS
 62
    1
 10
14645.560777999999
 20
5017.3851816578581
 11
15145.560777999999
 21
5017.3851816578581
  0
LINE
  8
_0-2_LAYER1
  6
CONTINUOUS
 62
    1
 10
6445.560778
 20
4544.3851816578581
 11
15445.560777999999
 21
4544.3851816578581
  0
LINE
  8
_0-2_LAYER1
  6
CONTINUOUS
 62
    1
 10
6467.5607779999991
 20
3989.3851816578581
 11
6467.5607779999991
 21
3829.3851816578581
  0
LINE
  8
_0-2_LAYER1
  6
CONTINUOUS
 62
    1
 10
15467.560778000003
 20
3829.3851816578581
 11
15467.560778000003
 21
3989.3851816578581
  0
LINE
  8
_0-2_LAYER1
  6
CONTINUOUS
 62
    1
 10
15467.560778000003
 20
3989.3851816578581
 11
6467.5607779999991
 21
3989.3851816578581
  0
LINE
  8
_0-2_LAYER1
  6
CONTINUOUS
 62
    1
 10
15467.560778000003
 20
3829.3851816578581
 11
6467.5607779999991
 21
3829.3851816578581
  0
LINE
  8
_0-2_LAYER1
  6
CONTINUOUS
 62
    1
 10
15467.560778000003
 20
3831.3851816578581
 11
7287.5607779999991
 21
3831.3851816578581
  0
LINE
  8
_0-2_LAYER1
  6
CONTINUOUS
 62
    1
 10
7287.5607779999991
 20
3831.3851816578581
 11
6467.5607779999991
 21
3831.3851816578581
  0
LINE
  8
_0-2_LAYER1
  6
CONTINUOUS
 62
    1
 10
6467.5607779999991
 20
3833.3851816578581
 11
6647.5607779999991
 21
3833.3851816578581
  0
LINE
  8
_0-2_LAYER1
  6
CONTINUOUS
 62
    1
 10
6787.5607779999991
 20
3833.3851816578581
 11
7147.5607779999991
 21
3833.3851816578581
  0
LINE
  8
_0-2_LAYER1
  6
CONTINUOUS
 62
    1
 10
6467.5607779999991
 20
3831.3851816578581
 11
6647.5607779999991
 21
3831.3851816578581
  0
ARC
  8
_0-2_LAYER1
  6
CONTINUOUS
 62
    1
 10
6647.5607779999991
 20
3843.3851816578581
 40
10
 50
270
 51
0
  0
ARC
  8
_0-2_LAYER1
  6
CONTINUOUS
 62
    1
 10
6647.5607779999991
 20
3843.3851816578581
 40
12.000000000000002
 50
270
 51
0
  0
ARC
  8
_0-2_LAYER1
  6
CONTINUOUS
 62
    1
 10
6787.5607779999991
 20
3843.3851816578581
 40
10
 50
180
 51
270
  0
LINE
  8
_0-2_LAYER1
  6
CONTINUOUS
 62
    1
 10
6818.560778
 20
3831.3851816578581
 11
6787.5607779999991
 21
3831.3851816578581
  0
ARC
  8
_0-2_LAYER1
  6
CONTINUOUS
 62
    1
 10
6787.5607779999991
 20
3843.3851816578581
 40
12.000000000000002
 50
180
 51
270
  0
LINE
  8
_0-2_LAYER1
  6
CONTINUOUS
 62
    1
 10
7074.560778
 20
3831.3851816578581
 11
7147.5607779999991
 21
3831.3851816578581
  0
ARC
  8
_0-2_LAYER1
  6
CONTINUOUS
 62
    1
 10
7147.5607779999991
 20
3843.3851816578581
 40
10
 50
270
 51
0
  0
ARC
  8
_0-2_LAYER1
  6
CONTINUOUS
 62
    1
 10
7147.5607779999991
 20
3843.3851816578581
 40
12.000000000000002
 50
270
 51
0
  0
LINE
  8
_0-2_LAYER1
  6
CONTINUOUS
 62
    1
 10
7647.5607779999991
 20
3833.3851816578581
 11
7287.5607779999991
 21
3833.3851816578581
  0
LINE
  8
_0-2_LAYER1
  6
CONTINUOUS
 62
    1
 10
7775.560778
 20
3831.3851816578581
 11
7287.5607779999991
 21
3831.3851816578581
  0
ARC
  8
_0-2_LAYER1
  6
CONTINUOUS
 62
    1
 10
7287.5607779999991
 20
3843.3851816578581
 40
10
 50
180
 51
270
  0
ARC
  8
_0-2_LAYER1
  6
CONTINUOUS
 62
    1
 10
7287.5607779999991
 20
3843.3851816578581
 40
12.000000000000002
 50
180
 51
270
  0
ARC
  8
_0-2_LAYER1
  6
CONTINUOUS
 62
    1
 10
7647.5607779999991
 20
3843.3851816578581
 40
12.000000000000002
 50
270
 51
0
  0
ARC
  8
_0-2_LAYER1
  6
CONTINUOUS
 62
    1
 10
7647.5607779999991
 20
3843.3851816578581
 40
10
 50
270
 51
0
  0
ARC
  8
_0-2_LAYER1
  6
CONTINUOUS
 62
    1
 10
7787.5607779999991
 20
3843.3851816578581
 40
12.000000000000002
 50
180
 51
270
  0
ARC
  8
_0-2_LAYER1
  6
CONTINUOUS
 62
    1
 10
7787.5607779999991
 20
3843.3851816578581
 40
10
 50
180
 51
270
  0
LINE
  8
_0-2_LAYER1
  6
CONTINUOUS
 62
    1
 10
8147.5607780000009
 20
3833.3851816578581
 11
7787.5607779999991
 21
3833.3851816578581
  0
ARC
  8
_0-2_LAYER1
  6
CONTINUOUS
 62
    1
 10
8147.5607780000009
 20
3843.3851816578581
 40
12.000000000000002
 50
270
 51
0
  0
ARC
  8
_0-2_LAYER1
  6
CONTINUOUS
 62
    1
 10
8147.5607780000009
 20
3843.3851816578581
 40
10
 50
270
 51
0
  0
ARC
  8
_0-2_LAYER1
  6
CONTINUOUS
 62
    1
 10
8287.5607779999991
 20
3843.3851816578581
 40
12.000000000000002
 50
180
 51
270
  0
ARC
  8
_0-2_LAYER1
  6
CONTINUOUS
 62
    1
 10
8287.5607779999991
 20
3843.3851816578581
 40
10
 50
180
 51
270
  0
LINE
  8
_0-2_LAYER1
  6
CONTINUOUS
 62
    1
 10
8647.5607779999991
 20
3833.3851816578581
 11
8287.5607779999991
 21
3833.3851816578581
  0
ARC
  8
_0-2_LAYER1
  6
CONTINUOUS
 62
    1
 10
8647.5607779999991
 20
3843.3851816578581
 40
12.000000000000002
 50
270
 51
0
  0
ARC
  8
_0-2_LAYER1
  6
CONTINUOUS
 62
    1
 10
8647.5607779999991
 20
3843.3851816578581
 40
10
 50
270
 51
0
  0
ARC
  8
_0-2_LAYER1
  6
CONTINUOUS
 62
    1
 10
8787.5607779999991
 20
3843.3851816578581
 40
12.000000000000002
 50
180
 51
270
  0
ARC
  8
_0-2_LAYER1
  6
CONTINUOUS
 62
    1
 10
8787.5607779999991
 20
3843.3851816578581
 40
10
 50
180
 51
270
  0
LINE
  8
_0-2_LAYER1
  6
CONTINUOUS
 62
    1
 10
9147.5607779999991
 20
3833.3851816578581
 11
8787.5607779999991
 21
3833.3851816578581
  0
ARC
  8
_0-2_LAYER1
  6
CONTINUOUS
 62
    1
 10
9147.5607779999991
 20
3843.3851816578581
 40
12.000000000000002
 50
270
 51
0
  0
ARC
  8
_0-2_LAYER1
  6
CONTINUOUS
 62
    1
 10
9147.5607779999991
 20
3843.3851816578581
 40
10
 50
270
 51
0
  0
ARC
  8
_0-2_LAYER1
  6
CONTINUOUS
 62
    1
 10
9287.5607779999991
 20
3843.3851816578581
 40
12.000000000000002
 50
180
 51
270
  0
ARC
  8
_0-2_LAYER1
  6
CONTINUOUS
 62
    1
 10
9287.5607779999991
 20
3843.3851816578581
 40
10
 50
180
 51
270
  0
LINE
  8
_0-2_LAYER1
  6
CONTINUOUS
 62
    1
 10
9647.5607779999991
 20
3833.3851816578581
 11
9287.5607779999991
 21
3833.3851816578581
  0
ARC
  8
_0-2_LAYER1
  6
CONTINUOUS
 62
    1
 10
9647.5607779999991
 20
3843.3851816578581
 40
12.000000000000002
 50
270
 51
0
  0
ARC
  8
_0-2_LAYER1
  6
CONTINUOUS
 62
    1
 10
9647.5607779999991
 20
3843.3851816578581
 40
10
 50
270
 51
0
  0
ARC
  8
_0-2_LAYER1
  6
CONTINUOUS
 62
    1
 10
9787.5607779999991
 20
3843.3851816578581
 40
12.000000000000002
 50
180
 51
270
  0
ARC
  8
_0-2_LAYER1
  6
CONTINUOUS
 62
    1
 10
9787.5607779999991
 20
3843.3851816578581
 40
10
 50
180
 51
270
  0
LINE
  8
_0-2_LAYER1
  6
CONTINUOUS
 62
    1
 10
10147.560777999999
 20
3833.3851816578581
 11
9787.5607779999991
 21
3833.3851816578581
  0
ARC
  8
_0-2_LAYER1
  6
CONTINUOUS
 62
    1
 10
10147.560777999999
 20
3843.3851816578581
 40
12.000000000000002
 50
270
 51
0
  0
ARC
  8
_0-2_LAYER1
  6
CONTINUOUS
 62
    1
 10
10147.560777999999
 20
3843.3851816578581
 40
10
 50
270
 51
0
  0
ARC
  8
_0-2_LAYER1
  6
CONTINUOUS
 62
    1
 10
10287.560777999999
 20
3843.3851816578581
 40
12.000000000000002
 50
180
 51
270
  0
ARC
  8
_0-2_LAYER1
  6
CONTINUOUS
 62
    1
 10
10287.560777999999
 20
3843.3851816578581
 40
10
 50
180
 51
270
  0
LINE
  8
_0-2_LAYER1
  6
CONTINUOUS
 62
    1
 10
10647.560777999999
 20
3833.3851816578581
 11
10287.560777999999
 21
3833.3851816578581
  0
ARC
  8
_0-2_LAYER1
  6
CONTINUOUS
 62
    1
 10
11147.560777999999
 20
3843.3851816578581
 40
12.000000000000002
 50
270
 51
0
  0
ARC
  8
_0-2_LAYER1
  6
CONTINUOUS
 62
    1
 10
11147.560777999999
 20
3843.3851816578581
 40
10
 50
270
 51
0
  0
ARC
  8
_0-2_LAYER1
  6
CONTINUOUS
 62
    1
 10
11287.560777999999
 20
3843.3851816578581
 40
12.000000000000002
 50
180
 51
270
  0
ARC
  8
_0-2_LAYER1
  6
CONTINUOUS
 62
    1
 10
11287.560777999999
 20
3843.3851816578581
 40
10
 50
180
 51
270
  0
LINE
  8
_0-2_LAYER1
  6
CONTINUOUS
 62
    1
 10
11647.560777999999
 20
3833.3851816578581
 11
11287.560777999999
 21
3833.3851816578581
  0
ARC
  8
_0-2_LAYER1
  6
CONTINUOUS
 62
    1
 10
11647.560777999999
 20
3843.3851816578581
 40
12.000000000000002
 50
270
 51
0
  0
ARC
  8
_0-2_LAYER1
  6
CONTINUOUS
 62
    1
 10
11647.560777999999
 20
3843.3851816578581
 40
10
 50
270
 51
0
  0
ARC
  8
_0-2_LAYER1
  6
CONTINUOUS
 62
    1
 10
11787.560777999999
 20
3843.3851816578581
 40
12.000000000000002
 50
180
 51
270
  0
ARC
  8
_0-2_LAYER1
  6
CONTINUOUS
 62
    1
 10
11787.560777999999
 20
3843.3851816578581
 40
10
 50
180
 51
270
  0
LINE
  8
_0-2_LAYER1
  6
CONTINUOUS
 62
    1
 10
12147.560777999999
 20
3833.3851816578581
 11
11787.560777999999
 21
3833.3851816578581
  0
ARC
  8
_0-2_LAYER1
  6
CONTINUOUS
 62
    1
 10
12147.560777999999
 20
3843.3851816578581
 40
12.000000000000002
 50
270
 51
0
  0
ARC
  8
_0-2_LAYER1
  6
CONTINUOUS
 62
    1
 10
12147.560777999999
 20
3843.3851816578581
 40
10
 50
270
 51
0
  0
ARC
  8
_0-2_LAYER1
  6
CONTINUOUS
 62
    1
 10
12287.560777999999
 20
3843.3851816578581
 40
12.000000000000002
 50
180
 51
270
  0
ARC
  8
_0-2_LAYER1
  6
CONTINUOUS
 62
    1
 10
12287.560777999999
 20
3843.3851816578581
 40
10
 50
180
 51
270
  0
LINE
  8
_0-2_LAYER1
  6
CONTINUOUS
 62
    1
 10
12647.560777999999
 20
3833.3851816578581
 11
12287.560777999999
 21
3833.3851816578581
  0
ARC
  8
_0-2_LAYER1
  6
CONTINUOUS
 62
    1
 10
12647.560777999999
 20
3843.3851816578581
 40
12.000000000000002
 50
270
 51
0
  0
ARC
  8
_0-2_LAYER1
  6
CONTINUOUS
 62
    1
 10
12647.560777999999
 20
3843.3851816578581
 40
10
 50
270
 51
0
  0
ARC
  8
_0-2_LAYER1
  6
CONTINUOUS
 62
    1
 10
12787.560777999999
 20
3843.3851816578581
 40
12.000000000000002
 50
180
 51
270
  0
ARC
  8
_0-2_LAYER1
  6
CONTINUOUS
 62
    1
 10
12787.560777999999
 20
3843.3851816578581
 40
10
 50
180
 51
270
  0
LINE
  8
_0-2_LAYER1
  6
CONTINUOUS
 62
    1
 10
13147.560777999999
 20
3833.3851816578581
 11
12787.560777999999
 21
3833.3851816578581
  0
ARC
  8
_0-2_LAYER1
  6
CONTINUOUS
 62
    1
 10
10647.560777999999
 20
3843.3851816578581
 40
12.000000000000002
 50
270
 51
0
  0
ARC
  8
_0-2_LAYER1
  6
CONTINUOUS
 62
    1
 10
10647.560777999999
 20
3843.3851816578581
 40
10
 50
270
 51
0
  0
ARC
  8
_0-2_LAYER1
  6
CONTINUOUS
 62
    1
 10
10787.560777999999
 20
3843.3851816578581
 40
12.000000000000002
 50
180
 51
270
  0
ARC
  8
_0-2_LAYER1
  6
CONTINUOUS
 62
    1
 10
10787.560777999999
 20
3843.3851816578581
 40
10
 50
180
 51
270
  0
LINE
  8
_0-2_LAYER1
  6
CONTINUOUS
 62
    1
 10
11147.560777999999
 20
3833.3851816578581
 11
10787.560777999999
 21
3833.3851816578581
  0
ARC
  8
_0-2_LAYER1
  6
CONTINUOUS
 62
    1
 10
13147.560777999999
 20
3843.3851816578581
 40
12.000000000000002
 50
270
 51
0
  0
ARC
  8
_0-2_LAYER1
  6
CONTINUOUS
 62
    1
 10
13147.560777999999
 20
3843.3851816578581
 40
10
 50
270
 51
0
  0
ARC
  8
_0-2_LAYER1
  6
CONTINUOUS
 62
    1
 10
13287.560777999999
 20
3843.3851816578581
 40
12.000000000000002
 50
180
 51
270
  0
ARC
  8
_0-2_LAYER1
  6
CONTINUOUS
 62
    1
 10
13287.560777999999
 20
3843.3851816578581
 40
10
 50
180
 51
270
  0
LINE
  8
_0-2_LAYER1
  6
CONTINUOUS
 62
    1
 10
13647.560777999999
 20
3833.3851816578581
 11
13287.560777999999
 21
3833.3851816578581
  0
ARC
  8
_0-2_LAYER1
  6
CONTINUOUS
 62
    1
 10
13647.560777999999
 20
3843.3851816578581
 40
12.000000000000002
 50
270
 51
0
  0
ARC
  8
_0-2_LAYER1
  6
CONTINUOUS
 62
    1
 10
13647.560777999999
 20
3843.3851816578581
 40
10
 50
270
 51
0
  0
ARC
  8
_0-2_LAYER1
  6
CONTINUOUS
 62
    1
 10
13787.560777999999
 20
3843.3851816578581
 40
12.000000000000002
 50
180
 51
270
  0
ARC
  8
_0-2_LAYER1
  6
CONTINUOUS
 62
    1
 10
13787.560777999999
 20
3843.3851816578581
 40
10
 50
180
 51
270
  0
LINE
  8
_0-2_LAYER1
  6
CONTINUOUS
 62
    1
 10
14147.560777999999
 20
3833.3851816578581
 11
13787.560777999999
 21
3833.3851816578581
  0
ARC
  8
_0-2_LAYER1
  6
CONTINUOUS
 62
    1
 10
14147.560777999999
 20
3843.3851816578581
 40
12.000000000000002
 50
270
 51
0
  0
ARC
  8
_0-2_LAYER1
  6
CONTINUOUS
 62
    1
 10
14147.560777999999
 20
3843.3851816578581
 40
10
 50
270
 51
0
  0
ARC
  8
_0-2_LAYER1
  6
CONTINUOUS
 62
    1
 10
14287.560777999999
 20
3843.3851816578581
 40
12.000000000000002
 50
180
 51
270
  0
ARC
  8
_0-2_LAYER1
  6
CONTINUOUS
 62
    1
 10
14287.560777999999
 20
3843.3851816578581
 40
10
 50
180
 51
270
  0
LINE
  8
_0-2_LAYER1
  6
CONTINUOUS
 62
    1
 10
14647.560778000003
 20
3833.3851816578581
 11
14287.560777999999
 21
3833.3851816578581
  0
ARC
  8
_0-2_LAYER1
  6
CONTINUOUS
 62
    1
 10
14647.560778000003
 20
3843.3851816578581
 40
12.000000000000002
 50
270
 51
0
  0
ARC
  8
_0-2_LAYER1
  6
CONTINUOUS
 62
    1
 10
14647.560778000003
 20
3843.3851816578581
 40
10
 50
270
 51
0
  0
ARC
  8
_0-2_LAYER1
  6
CONTINUOUS
 62
    1
 10
14787.560778000003
 20
3843.3851816578581
 40
12.000000000000002
 50
180
 51
270
  0
ARC
  8
_0-2_LAYER1
  6
CONTINUOUS
 62
    1
 10
14787.560778000003
 20
3843.3851816578581
 40
10
 50
180
 51
270
  0
LINE
  8
_0-2_LAYER1
  6
CONTINUOUS
 62
    1
 10
15147.560778000003
 20
3833.3851816578581
 11
14787.560778000003
 21
3833.3851816578581
  0
ARC
  8
_0-2_LAYER1
  6
CONTINUOUS
 62
    1
 10
15147.560778000003
 20
3843.3851816578581
 40
12.000000000000002
 50
270
 51
0
  0
ARC
  8
_0-2_LAYER1
  6
CONTINUOUS
 62
    1
 10
15147.560778000003
 20
3843.3851816578581
 40
10
 50
270
 51
0
  0
ARC
  8
_0-2_LAYER1
  6
CONTINUOUS
 62
    1
 10
15287.560778000003
 20
3843.3851816578581
 40
12.000000000000002
 50
180
 51
270
  0
ARC
  8
_0-2_LAYER1
  6
CONTINUOUS
 62
    1
 10
15287.560778000003
 20
3843.3851816578581
 40
10
 50
180
 51
270
  0
LINE
  8
_0-2_LAYER1
  6
CONTINUOUS
 62
    1
 10
15467.560778000003
 20
3833.3851816578581
 11
15287.560778000003
 21
3833.3851816578581
  0
LINE
  8
_0-2_LAYER1
  6
CONTINUOUS
 62
    1
 10
6445.560778
 20
4623.3851816578581
 11
15445.560777999999
 21
4623.3851816578581
  0
LINE
  8
_0-2_LAYER1
  6
CONTINUOUS
 62
    1
 10
6445.560778
 20
5895.3851816578581
 11
6445.560778
 21
5695.3851816578581
  0
LINE
  8
_0-2_LAYER1
  6
CONTINUOUS
 62
    1
 10
6645.560778
 20
5895.3851816578581
 11
6645.560778
 21
5695.3851816578581
  0
LINE
  8
_0-2_LAYER1
  6
CONTINUOUS
 62
    1
 10
6445.560778
 20
5895.3851816578581
 11
6645.560778
 21
5895.3851816578581
  0
TEXT
  8
_0-2_LAYER1
 62
    7
 10
6493.0607779999991
 20
5915.3851816578581
 40
140
 41
0.8
 50
0
  1
20
  0
LINE
  8
_0-2_LAYER1
  6
CONTINUOUS
 62
    1
 10
6645.560778
 20
5895.3851816578581
 11
6645.560778
 21
5695.3851816578581
  0
LINE
  8
_0-2_LAYER1
  6
CONTINUOUS
 62
    1
 10
7145.560778
 20
5895.3851816578581
 11
7145.560778
 21
5695.3851816578581
  0
LINE
  8
_0-2_LAYER1
  6
CONTINUOUS
 62
    1
 10
6645.560778
 20
5895.3851816578581
 11
7145.560778
 21
5895.3851816578581
  0
TEXT
  8
_0-2_LAYER1
 62
    7
 10
6843.0607780000009
 20
5915.3851816578581
 40
140
 41
0.8
 50
0
  1
50
  0
LINE
  8
_0-2_LAYER1
  6
CONTINUOUS
 62
    1
 10
7145.560778
 20
5895.3851816578581
 11
7145.560778
 21
5695.3851816578581
  0
LINE
  8
_0-2_LAYER1
  6
CONTINUOUS
 62
    1
 10
7445.560778
 20
5895.3851816578581
 11
7445.560778
 21
5695.3851816578581
  0
LINE
  8
_0-2_LAYER1
  6
CONTINUOUS
 62
    1
 10
7145.560778
 20
5895.3851816578581
 11
7445.560778
 21
5895.3851816578581
  0
TEXT
  8
_0-2_LAYER1
 62
    7
 10
7243.0607780000009
 20
5915.3851816578581
 40
140
 41
0.8
 50
0
  1
30
  0
LINE
  8
_0-2_LAYER1
  6
CONTINUOUS
 62
    1
 10
7445.560778
 20
5895.3851816578581
 11
7445.560778
 21
5695.3851816578581
  0
LINE
  8
_0-2_LAYER1
  6
CONTINUOUS
 62
    1
 10
7945.560778
 20
5895.3851816578581
 11
7945.560778
 21
5695.3851816578581
  0
LINE
  8
_0-2_LAYER1
  6
CONTINUOUS
 62
    1
 10
7445.560778
 20
5895.3851816578581
 11
7945.560778
 21
5895.3851816578581
  0
TEXT
  8
_0-2_LAYER1
 62
    7
 10
7643.0607779999973
 20
5915.3851816578581
 40
140
 41
0.8
 50
0
  1
50
  0
LINE
  8
_0-2_LAYER1
  6
CONTINUOUS
 62
    1
 10
7945.560778
 20
5895.3851816578581
 11
7945.560778
 21
5695.3851816578581
  0
LINE
  8
_0-2_LAYER1
  6
CONTINUOUS
 62
    1
 10
8245.5607779999991
 20
5895.3851816578581
 11
8245.5607779999991
 21
5695.3851816578581
  0
LINE
  8
_0-2_LAYER1
  6
CONTINUOUS
 62
    1
 10
7945.560778
 20
5895.3851816578581
 11
8245.5607779999991
 21
5895.3851816578581
  0
TEXT
  8
_0-2_LAYER1
 62
    7
 10
8043.0607780000009
 20
5915.3851816578581
 40
140
 41
0.8
 50
0
  1
30
  0
LINE
  8
_0-2_LAYER1
  6
CONTINUOUS
 62
    1
 10
8245.5607779999991
 20
5895.3851816578581
 11
8245.5607779999991
 21
5695.3851816578581
  0
LINE
  8
_0-2_LAYER1
  6
CONTINUOUS
 62
    1
 10
8745.5607779999991
 20
5895.3851816578581
 11
8745.5607779999991
 21
5695.3851816578581
  0
LINE
  8
_0-2_LAYER1
  6
CONTINUOUS
 62
    1
 10
8245.5607779999991
 20
5895.3851816578581
 11
8745.5607779999991
 21
5895.3851816578581
  0
TEXT
  8
_0-2_LAYER1
 62
    7
 10
8443.0607779999955
 20
5915.3851816578581
 40
140
 41
0.8
 50
0
  1
50
  0
LINE
  8
_0-2_LAYER1
  6
CONTINUOUS
 62
    1
 10
8745.5607779999991
 20
5895.3851816578581
 11
8745.5607779999991
 21
5695.3851816578581
  0
LINE
  8
_0-2_LAYER1
  6
CONTINUOUS
 62
    1
 10
9045.5607779999991
 20
5895.3851816578581
 11
9045.5607779999991
 21
5695.3851816578581
  0
LINE
  8
_0-2_LAYER1
  6
CONTINUOUS
 62
    1
 10
8745.5607779999991
 20
5895.3851816578581
 11
9045.5607779999991
 21
5895.3851816578581
  0
TEXT
  8
_0-2_LAYER1
 62
    7
 10
8843.0607779999955
 20
5915.3851816578581
 40
140
 41
0.8
 50
0
  1
30
  0
LINE
  8
_0-2_LAYER1
  6
CONTINUOUS
 62
    1
 10
9045.5607779999991
 20
5895.3851816578581
 11
9045.5607779999991
 21
5695.3851816578581
  0
LINE
  8
_0-2_LAYER1
  6
CONTINUOUS
 62
    1
 10
9545.5607779999991
 20
5895.3851816578581
 11
9545.5607779999991
 21
5695.3851816578581
  0
LINE
  8
_0-2_LAYER1
  6
CONTINUOUS
 62
    1
 10
9045.5607779999991
 20
5895.3851816578581
 11
9545.5607779999991
 21
5895.3851816578581
  0
TEXT
  8
_0-2_LAYER1
 62
    7
 10
9243.0607779999955
 20
5915.3851816578581
 40
140
 41
0.8
 50
0
  1
50
  0
LINE
  8
_0-2_LAYER1
  6
CONTINUOUS
 62
    1
 10
9545.5607779999991
 20
5895.3851816578581
 11
9545.5607779999991
 21
5695.3851816578581
  0
LINE
  8
_0-2_LAYER1
  6
CONTINUOUS
 62
    1
 10
9845.5607779999991
 20
5895.3851816578581
 11
9845.5607779999991
 21
5695.3851816578581
  0
LINE
  8
_0-2_LAYER1
  6
CONTINUOUS
 62
    1
 10
9545.5607779999991
 20
5895.3851816578581
 11
9845.5607779999991
 21
5895.3851816578581
  0
TEXT
  8
_0-2_LAYER1
 62
    7
 10
9643.0607779999955
 20
5915.3851816578581
 40
140
 41
0.8
 50
0
  1
30
  0
LINE
  8
_0-2_LAYER1
  6
CONTINUOUS
 62
    1
 10
9845.5607779999991
 20
5895.3851816578581
 11
9845.5607779999991
 21
5695.3851816578581
  0
LINE
  8
_0-2_LAYER1
  6
CONTINUOUS
 62
    1
 10
10345.560777999999
 20
5895.3851816578581
 11
10345.560777999999
 21
5695.3851816578581
  0
LINE
  8
_0-2_LAYER1
  6
CONTINUOUS
 62
    1
 10
9845.5607779999991
 20
5895.3851816578581
 11
10345.560777999999
 21
5895.3851816578581
  0
TEXT
  8
_0-2_LAYER1
 62
    7
 10
10043.060777999995
 20
5915.3851816578581
 40
140
 41
0.8
 50
0
  1
50
  0
LINE
  8
_0-2_LAYER1
  6
CONTINUOUS
 62
    1
 10
10345.560777999999
 20
5895.3851816578581
 11
10345.560777999999
 21
5695.3851816578581
  0
LINE
  8
_0-2_LAYER1
  6
CONTINUOUS
 62
    1
 10
10645.560777999999
 20
5895.3851816578581
 11
10645.560777999999
 21
5695.3851816578581
  0
LINE
  8
_0-2_LAYER1
  6
CONTINUOUS
 62
    1
 10
10345.560777999999
 20
5895.3851816578581
 11
10645.560777999999
 21
5895.3851816578581
  0
TEXT
  8
_0-2_LAYER1
 62
    7
 10
10443.060777999995
 20
5915.3851816578581
 40
140
 41
0.8
 50
0
  1
30
  0
LINE
  8
_0-2_LAYER1
  6
CONTINUOUS
 62
    1
 10
10645.560777999999
 20
5895.3851816578581
 11
10645.560777999999
 21
5695.3851816578581
  0
LINE
  8
_0-2_LAYER1
  6
CONTINUOUS
 62
    1
 10
11145.560777999999
 20
5895.3851816578581
 11
11145.560777999999
 21
5695.3851816578581
  0
LINE
  8
_0-2_LAYER1
  6
CONTINUOUS
 62
    1
 10
10645.560777999999
 20
5895.3851816578581
 11
11145.560777999999
 21
5895.3851816578581
  0
TEXT
  8
_0-2_LAYER1
 62
    7
 10
10843.060778000014
 20
5915.3851816578581
 40
140
 41
0.8
 50
0
  1
50
  0
LINE
  8
_0-2_LAYER1
  6
CONTINUOUS
 62
    1
 10
11145.560777999999
 20
5895.3851816578581
 11
11145.560777999999
 21
5695.3851816578581
  0
LINE
  8
_0-2_LAYER1
  6
CONTINUOUS
 62
    1
 10
11445.560777999999
 20
5895.3851816578581
 11
11445.560777999999
 21
5695.3851816578581
  0
LINE
  8
_0-2_LAYER1
  6
CONTINUOUS
 62
    1
 10
11145.560777999999
 20
5895.3851816578581
 11
11445.560777999999
 21
5895.3851816578581
  0
TEXT
  8
_0-2_LAYER1
 62
    7
 10
11243.060778000014
 20
5915.3851816578581
 40
140
 41
0.8
 50
0
  1
30
  0
LINE
  8
_0-2_LAYER1
  6
CONTINUOUS
 62
    1
 10
11445.560777999999
 20
5895.3851816578581
 11
11445.560777999999
 21
5695.3851816578581
  0
LINE
  8
_0-2_LAYER1
  6
CONTINUOUS
 62
    1
 10
11945.560777999999
 20
5895.3851816578581
 11
11945.560777999999
 21
5695.3851816578581
  0
LINE
  8
_0-2_LAYER1
  6
CONTINUOUS
 62
    1
 10
11445.560777999999
 20
5895.3851816578581
 11
11945.560777999999
 21
5895.3851816578581
  0
TEXT
  8
_0-2_LAYER1
 62
    7
 10
11643.060778000014
 20
5915.3851816578581
 40
140
 41
0.8
 50
0
  1
50
  0
LINE
  8
_0-2_LAYER1
  6
CONTINUOUS
 62
    1
 10
11945.560777999999
 20
5895.3851816578581
 11
11945.560777999999
 21
5695.3851816578581
  0
LINE
  8
_0-2_LAYER1
  6
CONTINUOUS
 62
    1
 10
12245.560777999999
 20
5895.3851816578581
 11
12245.560777999999
 21
5695.3851816578581
  0
LINE
  8
_0-2_LAYER1
  6
CONTINUOUS
 62
    1
 10
11945.560777999999
 20
5895.3851816578581
 11
12245.560777999999
 21
5895.3851816578581
  0
TEXT
  8
_0-2_LAYER1
 62
    7
 10
12043.060778000014
 20
5915.3851816578581
 40
140
 41
0.8
 50
0
  1
30
  0
LINE
  8
_0-2_LAYER1
  6
CONTINUOUS
 62
    1
 10
12245.560777999999
 20
5895.3851816578581
 11
12245.560777999999
 21
5695.3851816578581
  0
LINE
  8
_0-2_LAYER1
  6
CONTINUOUS
 62
    1
 10
12745.560777999999
 20
5895.3851816578581
 11
12745.560777999999
 21
5695.3851816578581
  0
LINE
  8
_0-2_LAYER1
  6
CONTINUOUS
 62
    1
 10
12245.560777999999
 20
5895.3851816578581
 11
12745.560777999999
 21
5895.3851816578581
  0
TEXT
  8
_0-2_LAYER1
 62
    7
 10
12443.060778000014
 20
5915.3851816578581
 40
140
 41
0.8
 50
0
  1
50
  0
LINE
  8
_0-2_LAYER1
  6
CONTINUOUS
 62
    1
 10
12745.560777999999
 20
5895.3851816578581
 11
12745.560777999999
 21
5695.3851816578581
  0
LINE
  8
_0-2_LAYER1
  6
CONTINUOUS
 62
    1
 10
13045.560777999999
 20
5895.3851816578581
 11
13045.560777999999
 21
5695.3851816578581
  0
LINE
  8
_0-2_LAYER1
  6
CONTINUOUS
 62
    1
 10
12745.560777999999
 20
5895.3851816578581
 11
13045.560777999999
 21
5895.3851816578581
  0
TEXT
  8
_0-2_LAYER1
 62
    7
 10
12843.060778000014
 20
5915.3851816578581
 40
140
 41
0.8
 50
0
  1
30
  0
LINE
  8
_0-2_LAYER1
  6
CONTINUOUS
 62
    1
 10
13045.560777999999
 20
5895.3851816578581
 11
13045.560777999999
 21
5695.3851816578581
  0
LINE
  8
_0-2_LAYER1
  6
CONTINUOUS
 62
    1
 10
13545.560777999999
 20
5895.3851816578581
 11
13545.560777999999
 21
5695.3851816578581
  0
LINE
  8
_0-2_LAYER1
  6
CONTINUOUS
 62
    1
 10
13045.560777999999
 20
5895.3851816578581
 11
13545.560777999999
 21
5895.3851816578581
  0
TEXT
  8
_0-2_LAYER1
 62
    7
 10
13243.060778000014
 20
5915.3851816578581
 40
140
 41
0.8
 50
0
  1
50
  0
LINE
  8
_0-2_LAYER1
  6
CONTINUOUS
 62
    1
 10
13545.560777999999
 20
5895.3851816578581
 11
13545.560777999999
 21
5695.3851816578581
  0
LINE
  8
_0-2_LAYER1
  6
CONTINUOUS
 62
    1
 10
13845.560777999999
 20
5895.3851816578581
 11
13845.560777999999
 21
5695.3851816578581
  0
LINE
  8
_0-2_LAYER1
  6
CONTINUOUS
 62
    1
 10
13545.560777999999
 20
5895.3851816578581
 11
13845.560777999999
 21
5895.3851816578581
  0
TEXT
  8
_0-2_LAYER1
 62
    7
 10
13643.060778000014
 20
5915.3851816578581
 40
140
 41
0.8
 50
0
  1
30
  0
LINE
  8
_0-2_LAYER1
  6
CONTINUOUS
 62
    1
 10
13845.560777999999
 20
5895.3851816578581
 11
13845.560777999999
 21
5695.3851816578581
  0
LINE
  8
_0-2_LAYER1
  6
CONTINUOUS
 62
    1
 10
14345.560777999999
 20
5895.3851816578581
 11
14345.560777999999
 21
5695.3851816578581
  0
LINE
  8
_0-2_LAYER1
  6
CONTINUOUS
 62
    1
 10
13845.560777999999
 20
5895.3851816578581
 11
14345.560777999999
 21
5895.3851816578581
  0
TEXT
  8
_0-2_LAYER1
 62
    7
 10
14043.060778000014
 20
5915.3851816578581
 40
140
 41
0.8
 50
0
  1
50
  0
LINE
  8
_0-2_LAYER1
  6
CONTINUOUS
 62
    1
 10
14345.560777999999
 20
5895.3851816578581
 11
14345.560777999999
 21
5695.3851816578581
  0
LINE
  8
_0-2_LAYER1
  6
CONTINUOUS
 62
    1
 10
14645.560777999999
 20
5895.3851816578581
 11
14645.560777999999
 21
5695.3851816578581
  0
LINE
  8
_0-2_LAYER1
  6
CONTINUOUS
 62
    1
 10
14345.560777999999
 20
5895.3851816578581
 11
14645.560777999999
 21
5895.3851816578581
  0
TEXT
  8
_0-2_LAYER1
 62
    7
 10
14443.060778000014
 20
5915.3851816578581
 40
140
 41
0.8
 50
0
  1
30
  0
LINE
  8
_0-2_LAYER1
  6
CONTINUOUS
 62
    1
 10
14645.560777999999
 20
5895.3851816578581
 11
14645.560777999999
 21
5695.3851816578581
  0
LINE
  8
_0-2_LAYER1
  6
CONTINUOUS
 62
    1
 10
15145.560777999999
 20
5895.3851816578581
 11
15145.560777999999
 21
5695.3851816578581
  0
LINE
  8
_0-2_LAYER1
  6
CONTINUOUS
 62
    1
 10
14645.560777999999
 20
5895.3851816578581
 11
15145.560777999999
 21
5895.3851816578581
  0
TEXT
  8
_0-2_LAYER1
 62
    7
 10
14843.060777999977
 20
5915.3851816578581
 40
140
 41
0.8
 50
0
  1
50
  0
LINE
  8
_0-2_LAYER1
  6
CONTINUOUS
 62
    1
 10
15145.560777999999
 20
5895.3851816578581
 11
15145.560777999999
 21
5695.3851816578581
  0
LINE
  8
_0-2_LAYER1
  6
CONTINUOUS
 62
    1
 10
15445.560777999999
 20
5895.3851816578581
 11
15445.560777999999
 21
5695.3851816578581
  0
LINE
  8
_0-2_LAYER1
  6
CONTINUOUS
 62
    1
 10
15145.560777999999
 20
5895.3851816578581
 11
15445.560777999999
 21
5895.3851816578581
  0
TEXT
  8
_0-2_LAYER1
 62
    7
 10
15243.060777999977
 20
5915.3851816578581
 40
140
 41
0.8
 50
0
  1
30
  0
LINE
  8
_0-2_LAYER1
  6
CONTINUOUS
 62
    1
 10
15445.560777999999
 20
6095.3851816578581
 11
15445.560777999999
 21
5895.3851816578581
  0
LINE
  8
_0-2_LAYER1
  6
CONTINUOUS
 62
    1
 10
6445.560778
 20
6095.3851816578581
 11
6445.560778
 21
5895.3851816578581
  0
LINE
  8
_0-2_LAYER1
  6
CONTINUOUS
 62
    1
 10
15445.560777999999
 20
6095.3851816578581
 11
6445.560778
 21
6095.3851816578581
  0
TEXT
  8
_0-2_LAYER1
 62
    7
 10
10866.810778000003
 20
6115.3851816578581
 40
140
 41
0.8
 50
0
  1
900
  0
TEXT
  8
_0-2_LAYER1
 62
    7
 10
3763.0607780000059
 20
6450.9004736578581
 40
140
 41
0.8
 50
0
  1
46
  0
LINE
  8
_0-2_LAYER1
  6
CONTINUOUS
 62
    1
 10
6467.5607779999991
 20
3833.3851816578581
 11
15467.560778000003
 21
3833.3851816578581
  0
ARC
  8
_0-2_LAYER1
  6
CONTINUOUS
 62
    1
 10
10967.560777999999
 20
3843.3851816578581
 40
110
 50
56.038573999999997
 51
123.96142600000002
  0
ARC
  8
_0-2_LAYER1
  6
CONTINUOUS
 62
    1
 10
10717.560777999999
 20
3943.3851816578581
 40
110
 50
236.03857400000004
 51
303.96142600000002
  0
ARC
  8
_0-2_LAYER1
  6
CONTINUOUS
 62
    1
 10
10467.560777999999
 20
3823.3851816578581
 40
110
 50
56.038573999999997
 51
123.96142600000002
  0
ARC
  8
_0-2_LAYER1
  6
CONTINUOUS
 62
    1
 10
10217.560777999999
 20
3943.3851816578581
 40
110
 50
236.03857400000004
 51
303.96142600000002
  0
LINE
  8
_0-2_LAYER1
  6
CONTINUOUS
 62
    1
 10
10279.010587000001
 20
3852.1496566578576
 11
10406.110968999999
 21
3914.6207066578581
  0
LINE
  8
_0-2_LAYER1
  6
CONTINUOUS
 62
    1
 10
10529.010587000001
 20
3914.6207066578581
 11
10656.110969000001
 21
3850.5822586578579
  0
LINE
  8
_0-2_LAYER1
  6
CONTINUOUS
 62
    1
 10
10906.110969000001
 20
3934.6207066578581
 11
10779.010587000002
 21
3852.1496566578576
  0
LINE
  8
_0-2_LAYER1
  6
CONTINUOUS
 62
    1
 10
10029.010587000001
 20
3934.6207066578581
 11
10156.110968999999
 21
3852.1496566578576
  0
ARC
  8
_0-2_LAYER1
  6
CONTINUOUS
 62
    1
 10
9967.5607779999991
 20
3843.3851816578581
 40
110
 50
56.038573999999997
 51
123.96142600000002
  0
ARC
  8
_0-2_LAYER1
  6
CONTINUOUS
 62
    1
 10
8967.5607779999991
 20
3843.3851816578581
 40
110
 50
56.038573999999997
 51
123.96142600000002
  0
LINE
  8
_0-2_LAYER1
  6
CONTINUOUS
 62
    1
 10
9029.0105870000007
 20
3934.6207066578581
 11
9156.1109689999994
 21
3852.1496566578576
  0
LINE
  8
_0-2_LAYER1
  6
CONTINUOUS
 62
    1
 10
9906.1109689999994
 20
3934.6207066578581
 11
9779.0105870000007
 21
3852.1496566578576
  0
LINE
  8
_0-2_LAYER1
  6
CONTINUOUS
 62
    1
 10
9529.0105870000007
 20
3914.6207066578581
 11
9656.1109689999994
 21
3850.5822586578579
  0
LINE
  8
_0-2_LAYER1
  6
CONTINUOUS
 62
    1
 10
9279.0105870000007
 20
3852.1496566578576
 11
9406.1109689999994
 21
3914.6207066578581
  0
ARC
  8
_0-2_LAYER1
  6
CONTINUOUS
 62
    1
 10
9217.5607779999991
 20
3943.3851816578581
 40
110
 50
236.03857400000004
 51
303.96142600000002
  0
ARC
  8
_0-2_LAYER1
  6
CONTINUOUS
 62
    1
 10
9467.5607779999991
 20
3823.3851816578581
 40
110
 50
56.038573999999997
 51
123.96142600000002
  0
ARC
  8
_0-2_LAYER1
  6
CONTINUOUS
 62
    1
 10
9717.5607779999991
 20
3943.3851816578581
 40
110
 50
236.03857400000004
 51
303.96142600000002
  0
ARC
  8
_0-2_LAYER1
  6
CONTINUOUS
 62
    1
 10
8717.5607779999991
 20
3943.3851816578581
 40
110
 50
236.03857400000004
 51
303.96142600000002
  0
ARC
  8
_0-2_LAYER1
  6
CONTINUOUS
 62
    1
 10
8467.5607779999991
 20
3823.3851816578581
 40
110
 50
56.038573999999997
 51
123.96142600000002
  0
ARC
  8
_0-2_LAYER1
  6
CONTINUOUS
 62
    1
 10
8217.5607779999991
 20
3943.3851816578581
 40
110
 50
236.03857400000004
 51
303.96142600000002
  0
LINE
  8
_0-2_LAYER1
  6
CONTINUOUS
 62
    1
 10
8279.0105870000007
 20
3852.1496566578576
 11
8406.1109689999994
 21
3914.6207066578581
  0
LINE
  8
_0-2_LAYER1
  6
CONTINUOUS
 62
    1
 10
8529.0105870000007
 20
3914.6207066578581
 11
8656.1109689999994
 21
3850.5822586578579
  0
LINE
  8
_0-2_LAYER1
  6
CONTINUOUS
 62
    1
 10
8906.1109689999994
 20
3934.6207066578581
 11
8779.0105870000007
 21
3852.1496566578576
  0
LINE
  8
_0-2_LAYER1
  6
CONTINUOUS
 62
    1
 10
8029.0105870000007
 20
3934.6207066578581
 11
8156.1109690000003
 21
3852.1496566578576
  0
ARC
  8
_0-2_LAYER1
  6
CONTINUOUS
 62
    1
 10
7967.5607779999991
 20
3843.3851816578581
 40
110
 50
56.038573999999997
 51
123.96142600000002
  0
ARC
  8
_0-2_LAYER1
  6
CONTINUOUS
 62
    1
 10
6967.5607779999991
 20
3843.3851816578581
 40
110
 50
56.038573999999997
 51
123.96142600000002
  0
LINE
  8
_0-2_LAYER1
  6
CONTINUOUS
 62
    1
 10
7029.0105870000007
 20
3934.6207066578581
 11
7156.1109690000003
 21
3852.1496566578576
  0
LINE
  8
_0-2_LAYER1
  6
CONTINUOUS
 62
    1
 10
7906.1109690000003
 20
3934.6207066578581
 11
7779.0105870000007
 21
3852.1496566578576
  0
LINE
  8
_0-2_LAYER1
  6
CONTINUOUS
 62
    1
 10
7529.0105870000007
 20
3914.6207066578581
 11
7656.1109690000003
 21
3850.5822586578579
  0
LINE
  8
_0-2_LAYER1
  6
CONTINUOUS
 62
    1
 10
7279.0105870000007
 20
3852.1496566578576
 11
7406.1109690000003
 21
3914.6207066578581
  0
ARC
  8
_0-2_LAYER1
  6
CONTINUOUS
 62
    1
 10
7217.5607779999991
 20
3943.3851816578581
 40
110
 50
236.03857400000004
 51
303.96142600000002
  0
ARC
  8
_0-2_LAYER1
  6
CONTINUOUS
 62
    1
 10
7467.5607779999991
 20
3823.3851816578581
 40
110
 50
56.038573999999997
 51
123.96142600000002
  0
ARC
  8
_0-2_LAYER1
  6
CONTINUOUS
 62
    1
 10
7717.5607779999991
 20
3943.3851816578581
 40
110
 50
236.03857400000004
 51
303.96142600000002
  0
ARC
  8
_0-2_LAYER1
  6
CONTINUOUS
 62
    1
 10
6717.5607779999991
 20
3943.3851816578581
 40
110
 50
270
 51
303.96142600000002
  0
LINE
  8
_0-2_LAYER1
  6
CONTINUOUS
 62
    1
 10
6906.1109690000003
 20
3934.6207066578581
 11
6779.0105870000007
 21
3852.1496566578576
  0
LINE
  8
_0-2_LAYER1
  6
CONTINUOUS
 62
    1
 10
15029.010587000001
 20
3934.6207066578581
 11
15156.110968999999
 21
3852.1496566578576
  0
ARC
  8
_0-2_LAYER1
  6
CONTINUOUS
 62
    1
 10
15217.560778000003
 20
3943.3851816578581
 40
110
 50
236.03857400000004
 51
270
  0
ARC
  8
_0-2_LAYER1
  6
CONTINUOUS
 62
    1
 10
14217.560777999999
 20
3943.3851816578581
 40
110
 50
236.03857400000004
 51
303.96142600000002
  0
ARC
  8
_0-2_LAYER1
  6
CONTINUOUS
 62
    1
 10
14467.560777999999
 20
3823.3851816578581
 40
110
 50
56.038573999999997
 51
123.96142600000002
  0
ARC
  8
_0-2_LAYER1
  6
CONTINUOUS
 62
    1
 10
14717.560778000003
 20
3943.3851816578581
 40
110
 50
236.03857400000004
 51
303.96142600000002
  0
LINE
  8
_0-2_LAYER1
  6
CONTINUOUS
 62
    1
 10
14656.110968999999
 20
3852.1496566578576
 11
14529.010587000001
 21
3914.6207066578581
  0
LINE
  8
_0-2_LAYER1
  6
CONTINUOUS
 62
    1
 10
14406.110968999999
 20
3914.6207066578581
 11
14279.010587000001
 21
3850.5822586578579
  0
LINE
  8
_0-2_LAYER1
  6
CONTINUOUS
 62
    1
 10
14029.010587000001
 20
3934.6207066578581
 11
14156.110968999999
 21
3852.1496566578576
  0
LINE
  8
_0-2_LAYER1
  6
CONTINUOUS
 62
    1
 10
14906.110968999999
 20
3934.6207066578581
 11
14779.010587000001
 21
3852.1496566578576
  0
ARC
  8
_0-2_LAYER1
  6
CONTINUOUS
 62
    1
 10
14967.560778000003
 20
3843.3851816578581
 40
110
 50
56.038573999999997
 51
123.96142600000002
  0
ARC
  8
_0-2_LAYER1
  6
CONTINUOUS
 62
    1
 10
13967.560777999999
 20
3843.3851816578581
 40
110
 50
56.038573999999997
 51
123.96142600000002
  0
LINE
  8
_0-2_LAYER1
  6
CONTINUOUS
 62
    1
 10
13906.110968999999
 20
3934.6207066578581
 11
13779.010587000001
 21
3852.1496566578576
  0
LINE
  8
_0-2_LAYER1
  6
CONTINUOUS
 62
    1
 10
13029.010587000002
 20
3934.6207066578581
 11
13156.110969000001
 21
3852.1496566578576
  0
LINE
  8
_0-2_LAYER1
  6
CONTINUOUS
 62
    1
 10
13406.110969000001
 20
3914.6207066578581
 11
13279.010587000002
 21
3850.5822586578579
  0
LINE
  8
_0-2_LAYER1
  6
CONTINUOUS
 62
    1
 10
13656.110968999999
 20
3852.1496566578576
 11
13529.010587000001
 21
3914.6207066578581
  0
ARC
  8
_0-2_LAYER1
  6
CONTINUOUS
 62
    1
 10
13717.560777999999
 20
3943.3851816578581
 40
110
 50
236.03857400000004
 51
303.96142600000002
  0
ARC
  8
_0-2_LAYER1
  6
CONTINUOUS
 62
    1
 10
13467.560777999999
 20
3823.3851816578581
 40
110
 50
56.038573999999997
 51
123.96142600000002
  0
ARC
  8
_0-2_LAYER1
  6
CONTINUOUS
 62
    1
 10
13217.560777999999
 20
3943.3851816578581
 40
110
 50
236.03857400000004
 51
303.96142600000002
  0
ARC
  8
_0-2_LAYER1
  6
CONTINUOUS
 62
    1
 10
12217.560777999999
 20
3943.3851816578581
 40
110
 50
236.03857400000004
 51
303.96142600000002
  0
ARC
  8
_0-2_LAYER1
  6
CONTINUOUS
 62
    1
 10
12467.560777999999
 20
3823.3851816578581
 40
110
 50
56.038573999999997
 51
123.96142600000002
  0
ARC
  8
_0-2_LAYER1
  6
CONTINUOUS
 62
    1
 10
12717.560777999999
 20
3943.3851816578581
 40
110
 50
236.03857400000004
 51
303.96142600000002
  0
LINE
  8
_0-2_LAYER1
  6
CONTINUOUS
 62
    1
 10
12656.110969000001
 20
3852.1496566578576
 11
12529.010587000002
 21
3914.6207066578581
  0
LINE
  8
_0-2_LAYER1
  6
CONTINUOUS
 62
    1
 10
12406.110969000001
 20
3914.6207066578581
 11
12279.010587000002
 21
3850.5822586578579
  0
LINE
  8
_0-2_LAYER1
  6
CONTINUOUS
 62
    1
 10
12029.010587000002
 20
3934.6207066578581
 11
12156.110969000001
 21
3852.1496566578576
  0
LINE
  8
_0-2_LAYER1
  6
CONTINUOUS
 62
    1
 10
12906.110969000001
 20
3934.6207066578581
 11
12779.010587000002
 21
3852.1496566578576
  0
ARC
  8
_0-2_LAYER1
  6
CONTINUOUS
 62
    1
 10
12967.560777999999
 20
3843.3851816578581
 40
110
 50
56.038573999999997
 51
123.96142600000002
  0
ARC
  8
_0-2_LAYER1
  6
CONTINUOUS
 62
    1
 10
11967.560777999999
 20
3843.3851816578581
 40
110
 50
56.038573999999997
 51
123.96142600000002
  0
LINE
  8
_0-2_LAYER1
  6
CONTINUOUS
 62
    1
 10
11906.110969000001
 20
3934.6207066578581
 11
11779.010587000002
 21
3852.1496566578576
  0
LINE
  8
_0-2_LAYER1
  6
CONTINUOUS
 62
    1
 10
11029.010587000002
 20
3934.6207066578581
 11
11156.110969000001
 21
3852.1496566578576
  0
LINE
  8
_0-2_LAYER1
  6
CONTINUOUS
 62
    1
 10
11406.110969000001
 20
3914.6207066578581
 11
11279.010587000002
 21
3850.5822586578579
  0
LINE
  8
_0-2_LAYER1
  6
CONTINUOUS
 62
    1
 10
11656.110969000001
 20
3852.1496566578576
 11
11529.010587000002
 21
3914.6207066578581
  0
ARC
  8
_0-2_LAYER1
  6
CONTINUOUS
 62
    1
 10
11717.560777999999
 20
3943.3851816578581
 40
110
 50
236.03857400000004
 51
303.96142600000002
  0
ARC
  8
_0-2_LAYER1
  6
CONTINUOUS
 62
    1
 10
11467.560777999999
 20
3823.3851816578581
 40
110
 50
56.038573999999997
 51
123.96142600000002
  0
ARC
  8
_0-2_LAYER1
  6
CONTINUOUS
 62
    1
 10
11217.560777999999
 20
3943.3851816578581
 40
110
 50
236.03857400000004
 51
303.96142600000002
  0
LINE
  8
_0-2_LAYER1
  6
CONTINUOUS
 62
    3
 10
4198.5101616045513
 20
5236.385181657859
 11
4271.5101616045513
 21
5307.3851816578572
  0
LINE
  8
_0-2_LAYER1
  6
CONTINUOUS
 62
    3
 10
4269.5101616045513
 20
5306.385181657859
 11
4196.5101616045513
 21
5236.385181657859
  0
LINE
  8
_0-2_LAYER1
  6
CONTINUOUS
 62
    3
 10
4169.5101616045504
 20
5412.3851816578572
 11
4271.5101616045513
 21
5307.3851816578572
  0
LINE
  8
_0-2_LAYER1
  6
CONTINUOUS
 62
    3
 10
4167.5101616045513
 20
5411.385181657859
 11
4269.5101616045513
 21
5306.385181657859
  0
LINE
  8
_0-2_LAYER1
  6
CONTINUOUS
 62
    3
 10
4198.5101616045513
 20
5236.385181657859
 11
4199.5101616045504
 21
5136.385181657859
  0
LINE
  8
_0-2_LAYER1
  6
CONTINUOUS
 62
    3
 10
4199.5101616045504
 20
4991.3851816578581
 11
4192.5101616045513
 21
4873.3851816578581
  0
LINE
  8
_0-2_LAYER1
  6
CONTINUOUS
 62
    3
 10
4196.5101616045513
 20
5236.385181657859
 11
4198.5101616045513
 21
5137.3851816578572
  0
LINE
  8
_0-2_LAYER1
  6
CONTINUOUS
 62
    3
 10
4199.5101616045504
 20
4989.3851816578581
 11
4191.5101616045513
 21
4874.3851816578581
  0
LINE
  8
_0-2_LAYER1
  6
DASHED
 62
    3
 10
4199.5101616045504
 20
4991.3851816578581
 11
4199.5101616045504
 21
5136.385181657859
  0
LINE
  8
_0-2_LAYER1
  6
DASHED
 62
    3
 10
4198.5101616045513
 20
5137.3851816578572
 11
4199.5101616045504
 21
4989.3851816578581
  0
LINE
  8
_0-2_LAYER1
  6
CONTINUOUS
 62
    3
 10
4191.5101616045513
 20
4874.3851816578581
 11
4118.5101616045513
 21
4865.3851816578581
  0
LINE
  8
_0-2_LAYER1
  6
CONTINUOUS
 62
    3
 10
4192.5101616045513
 20
4873.3851816578581
 11
4120.5101616045513
 21
4864.3851816578581
  0
LINE
  8
_0-2_LAYER1
  6
CONTINUOUS
 62
    3
 10
4131.5101616045513
 20
4377.3851816578581
 11
4131.5101616045513
 21
4396.3851816578581
  0
LINE
  8
_0-2_LAYER1
  6
CONTINUOUS
 62
    3
 10
4131.5101616045513
 20
4376.3851816578581
 11
4118.5101616045513
 21
4865.3851816578581
  0
LINE
  8
_0-2_LAYER1
  6
CONTINUOUS
 62
    3
 10
4120.5101616045513
 20
4864.3851816578581
 11
4132.5101616045513
 21
4377.3851816578581
  0
LINE
  8
_0-2_LAYER1
  6
CONTINUOUS
 62
    3
 10
4132.5101616045513
 20
4397.3851816578581
 11
4132.5101616045513
 21
4377.3851816578581
  0
LINE
  8
_0-2_LAYER1
  6
CONTINUOUS
 62
    3
 10
4251.5101616045513
 20
4388.3851816578581
 11
4132.5101616045513
 21
4377.3851816578581
  0
LINE
  8
_0-2_LAYER1
  6
CONTINUOUS
 62
    3
 10
4242.5101616045513
 20
4487.3851816578581
 11
4131.5101616045513
 21
4477.3851816578581
  0
LINE
  8
_0-2_LAYER1
  6
CONTINUOUS
 62
    3
 10
4242.5101616045513
 20
4487.3851816578581
 11
4251.5101616045513
 21
4388.3851816578581
  0
LINE
  8
_0-2_LAYER1
  6
CONTINUOUS
 62
    3
 10
3847.5101616045513
 20
4608.3851816578581
 11
4125.5101616045513
 21
4626.3851816578581
  0
LINE
  8
_0-2_LAYER1
  6
CONTINUOUS
 62
    3
 10
4131.5101616045513
 20
4377.3851816578581
 11
3863.5101616045513
 21
4359.3851816578581
  0
LINE
  8
_0-2_LAYER1
  6
CONTINUOUS
 62
    3
 10
3847.5101616045513
 20
4608.3851816578581
 11
3863.5101616045513
 21
4359.3851816578581
  0
LINE
  8
_0-2_LAYER1
  6
CONTINUOUS
 62
    1
 10
4073.5101616045513
 20
5766.385181657859
 11
4073.5101616045513
 21
5566.385181657859
  0
LINE
  8
_0-2_LAYER1
  6
CONTINUOUS
 62
    1
 10
4169.5101616045504
 20
5766.385181657859
 11
4169.5101616045504
 21
5566.385181657859
  0
LINE
  8
_0-2_LAYER1
  6
CONTINUOUS
 62
    1
 10
4073.5101616045513
 20
5766.385181657859
 11
4169.5101616045504
 21
5766.385181657859
  0
TEXT
  8
_0-2_LAYER1
 62
    7
 10
4069.0101616045476
 20
5786.385181657859
 40
140
 41
0.8
 50
0
  1
10
  0
LINE
  8
_0-2_LAYER1
  6
CONTINUOUS
 62
    1
 10
4797.5101616045513
 20
5306.385181657859
 11
4597.5101616045513
 21
5306.385181657859
  0
LINE
  8
_0-2_LAYER1
  6
CONTINUOUS
 62
    1
 10
4797.5101616045513
 20
5412.3851816578572
 11
4597.5101616045513
 21
5412.3851816578572
  0
LINE
  8
_0-2_LAYER1
  6
CONTINUOUS
 62
    1
 10
4797.5101616045513
 20
5306.385181657859
 11
4797.5101616045513
 21
5412.3851816578572
  0
TEXT
  8
_0-2_LAYER1
 62
    7
 10
4777.5101616045513
 20
5306.8851816578581
 40
140
 41
0.8
 50
90
  1
10
  0
LINE
  8
_0-2_LAYER1
  6
CONTINUOUS
 62
    1
 10
4797.5101616045513
 20
4394.3851816578581
 11
4597.5101616045513
 21
4394.3851816578581
  0
LINE
  8
_0-2_LAYER1
  6
CONTINUOUS
 62
    1
 10
4797.5101616045513
 20
5306.385181657859
 11
4597.5101616045513
 21
5306.385181657859
  0
LINE
  8
_0-2_LAYER1
  6
CONTINUOUS
 62
    1
 10
4797.5101616045513
 20
4394.3851816578581
 11
4797.5101616045513
 21
5306.385181657859
  0
TEXT
  8
_0-2_LAYER1
 62
    7
 10
4777.5101616045513
 20
4797.885181657859
 40
140
 41
0.8
 50
90
  1
90
  0
LINE
  8
_0-2_LAYER1
  6
CONTINUOUS
 62
    1
 10
4997.5101616045513
 20
4394.3851816578581
 11
4797.5101616045513
 21
4394.3851816578581
  0
LINE
  8
_0-2_LAYER1
  6
CONTINUOUS
 62
    1
 10
4997.5101616045513
 20
5412.3851816578572
 11
4797.5101616045513
 21
5412.3851816578572
  0
LINE
  8
_0-2_LAYER1
  6
CONTINUOUS
 62
    1
 10
4997.5101616045513
 20
4394.3851816578581
 11
4997.5101616045513
 21
5412.3851816578572
  0
TEXT
  8
_0-2_LAYER1
 62
    7
 10
4977.5101616045513
 20
4824.635181657859
 40
140
 41
0.8
 50
90
  1
100
  0
ENDSEC
  0
EOF
