  0
SECTION
  2
HEADER
  9
$ACADVER
  1
AC1009
  9
$INSBASE
 10
0
 20
0
 30
0
  9
$EXTMIN
 10
0
 20
0
  9
$EXTMAX
 10
2376
 20
1680
  9
$LIMMIN
 10
0
 20
0
  9
$LIMMAX
 10
2376
 20
1680
  9
$LTSCALE
 40
4
  0
ENDSEC
  0
SECTION
  2
TABLES
  0
TABLE
  2
LTYPE
 70
     9
  0
LTYPE
  2
CONTINUOUS
 70
    64
  3
実線
 72
    65
 73
     0
 40
0.0
  0
LTYPE
  2
DASHED1
 70
    64
  3
--  --  --  --  --  --  --  --  
 72
    65
 73
     2
 40
2.5
 49
1.25
 49
-1.25
  0
LTYPE
  2
DASHED2
 70
    64
  3
----    ----    ----    ----    
 72
    65
 73
     2
 40
5.0
 49
2.5
 49
-2.5
  0
LTYPE
  2
DASHED3
 70
    64
  3
------  ------  ------  ------  
 72
    65
 73
     2
 40
5.0
 49
3.75
 49
-1.25
  0
LTYPE
  2
CENTER1
 70
    64
  3
----- - ----- - ----- - ----- - 
 72
    65
 73
     4
 40
10.0
 49
6.25
 49
-1.25
 49
1.25
 49
-1.25
  0
LTYPE
  2
CENTER2
 70
    64
  3
----------  --  ----------  --  
 72
    65
 73
     4
 40
20.0
 49
12.5
 49
-2.5
 49
2.5
 49
-2.5
  0
LTYPE
  2
PHANTOM1
 70
    64
  3
--- - - --- - - --- - - --- - - 
 72
    65
 73
     6
 40
10.0
 49
3.25
 49
-1.25
 49
1.25
 49
-1.25
 49
1.25
 49
-1.25
  0
LTYPE
  2
PHANTOM2
 70
    64
  3
--------  -  -  --------  -  -  
 72
    65
 73
     6
 40
20.0
 49
10.0
 49
-2.5
 49
1.25
 49
-2.5
 49
1.25
 49
-2.5
  0
LTYPE
  2
DOT
 70
    64
  3
-   -   -   -   -   -   -   -   
 72
    65
 73
     2
 40
2.5
 49
0.625
 49
-1.875
  0
LTYPE
  2
DUMMY
 70
    64
  3
ダミー
 72
    65
 73
     0
 40
0.0
  0
LTYPE
  2
RAND1
 70
    64
  3
----- - ----- - ----- - ----- - 
 72
    65
 73
     4
 40
10.0
 49
6.25
 49
-1.25
 49
1.25
 49
-1.25
  0
LTYPE
  2
RAND2
 70
    64
  3
----------  --  ----------  --  
 72
    65
 73
     4
 40
20.0
 49
12.5
 49
-2.5
 49
2.5
 49
-2.5
  0
LTYPE
  2
RAND3
 70
    64
  3
--- - - --- - - --- - - --- - - 
 72
    65
 73
     6
 40
10.0
 49
3.25
 49
-1.25
 49
1.25
 49
-1.25
 49
1.25
 49
-1.25
  0
LTYPE
  2
RAND4
 70
    64
  3
--------  -  -  --------  -  -  
 72
    65
 73
     6
 40
20.0
 49
10.0
 49
-2.5
 49
1.25
 49
-2.5
 49
1.25
 49
-2.5
  0
LTYPE
  2
RAND5
 70
    64
  3
----- - ----- - ----- - ----- - 
 72
    65
 73
     4
 40
10.0
 49
6.25
 49
-1.25
 49
1.25
 49
-1.25
  0
LTYPE
  2
LONG1
 70
    64
  3
----------  --  ----------  --  
 72
    65
 73
     4
 40
20.0
 49
12.5
 49
-2.5
 49
2.5
 49
-2.5
  0
LTYPE
  2
LONG2
 70
    64
  3
--- - - --- - - --- - - --- - - 
 72
    65
 73
     6
 40
10.0
 49
3.25
 49
-1.25
 49
1.25
 49
-1.25
 49
1.25
 49
-1.25
  0
LTYPE
  2
LONG3
 70
    64
  3
--------  -  -  --------  -  -  
 72
    65
 73
     6
 40
20.0
 49
10.0
 49
-2.5
 49
1.25
 49
-2.5
 49
1.25
 49
-2.5
  0
LTYPE
  2
LONG4
 70
    64
  3
----- - ----- - ----- - ----- - 
 72
    65
 73
     4
 40
10.0
 49
6.25
 49
-1.25
 49
1.25
 49
-1.25
  0
LTYPE
  2
LONG5
 70
    64
  3
----------  --  ----------  --  
 72
    65
 73
     4
 40
20.0
 49
12.5
 49
-2.5
 49
2.5
 49
-2.5
  0
ENDTAB
  0
TABLE
  2
STYLE
  5
3
100
AcDbSymbolTable
 70
     1
  0
STYLE
  5
10
100
AcDbSymbolTableRecord
100
AcDbTextStyleTableRecord
  2
STANDARD
 70
     0
 40
0.0
 41
1.0
 50
0.0
 71
     0
 42
0.2
  3
txt
  4
bigfont.shx
  0
STYLE
  5
26
100
AcDbSymbolTableRecord
100
AcDbTextStyleTableRecord
  2
TATEGAKI
 70
    68
 40
0.0
 41
1.0
 50
0.0
 71
     0
 42
1.0
  3
txt
  4
bigfont.shx
  0
ENDTAB
  0
TABLE
  2
LAYER
 70
    2
  0
LAYER
  2
_0-1_LAYER1
 70
   64
 62
    7
  6
CONTINUOUS
  0
LAYER
  2
ADD_LINE
 70
   64
 62
    7
  6
CONTINUOUS
  0
ENDTAB
  0
ENDSEC
  0
SECTION
  2
BLOCKS
  0
ENDSEC
  0
SECTION
  2
ENTITIES
  0
LINE
  8
_0-1_LAYER1
  6
DASHED3
 62
    3
 10
1299.5
 20
927.5771165000001
 11
1299.5
 21
1119.5771164999999
  0
LINE
  8
_0-1_LAYER1
  6
DASHED3
 62
    3
 10
1295.5
 20
1119.5771164999999
 11
1295.5
 21
927.5771165000001
  0
LINE
  8
_0-1_LAYER1
  6
DASHED3
 62
    3
 10
1080.5
 20
1119.5771164999999
 11
1080.5
 21
927.5771165000001
  0
LINE
  8
_0-1_LAYER1
  6
DASHED3
 62
    3
 10
1076.5
 20
927.5771165000001
 11
1076.5
 21
1119.5771164999999
  0
LINE
  8
_0-1_LAYER1
  6
CONTINUOUS
 62
    3
 10
1080.5
 20
927.5771165000001
 11
1080.5
 21
471.77063650000014
  0
LINE
  8
_0-1_LAYER1
  6
CONTINUOUS
 62
    3
 10
1414
 20
1328.5771164999999
 11
1414
 21
1135.5771164999999
  0
LINE
  8
_0-1_LAYER1
  6
CONTINUOUS
 62
    3
 10
962
 20
1328.5771164999999
 11
962
 21
1135.5771164999999
  0
LINE
  8
_0-1_LAYER1
  6
CONTINUOUS
 62
    3
 10
958
 20
1328.5771164999999
 11
962
 21
1328.5771164999999
  0
LINE
  8
_0-1_LAYER1
  6
CONTINUOUS
 62
    3
 10
1414
 20
1328.5771164999999
 11
1418
 21
1328.5771164999999
  0
LINE
  8
_0-1_LAYER1
  6
CONTINUOUS
 62
    3
 10
954
 20
1324.5771164999999
 11
958
 21
1324.5771164999999
  0
LINE
  8
_0-1_LAYER1
  6
CONTINUOUS
 62
    3
 10
1418
 20
1324.5771164999999
 11
1422
 21
1324.5771164999999
  0
LINE
  8
_0-1_LAYER1
  6
CONTINUOUS
 62
    3
 10
1410
 20
1127.5771164999999
 11
966
 21
1127.5771164999999
  0
LINE
  8
_0-1_LAYER1
  6
CONTINUOUS
 62
    3
 10
1410
 20
1131.5771164999999
 11
966
 21
1131.5771164999999
  0
LINE
  8
_0-1_LAYER1
  6
CONTINUOUS
 62
    3
 10
1418
 20
1328.5771164999999
 11
1418
 21
1135.5771164999999
  0
LINE
  8
_0-1_LAYER1
  6
CONTINUOUS
 62
    3
 10
958
 20
1328.5771164999999
 11
958
 21
1135.5771164999999
  0
LINE
  8
_0-1_LAYER1
  6
CONTINUOUS
 62
    3
 10
1422
 20
1324.5771164999999
 11
1422
 21
1135.5771164999999
  0
LINE
  8
_0-1_LAYER1
  6
CONTINUOUS
 62
    3
 10
954
 20
1324.5771164999999
 11
954
 21
1135.5771164999999
  0
ARC
  8
_0-1_LAYER1
  6
CONTINUOUS
 62
    3
 10
966
 20
1135.5771164999999
 40
12
 50
180
 51
270
  0
LINE
  8
_0-1_LAYER1
  6
CONTINUOUS
 62
    3
 10
1295.5
 20
927.5771165000001
 11
1295.5
 21
471.77063650000014
  0
LINE
  8
_0-1_LAYER1
  6
CONTINUOUS
 62
    3
 10
1299.5
 20
627.5771165000001
 11
1299.5
 21
471.77063650000014
  0
LINE
  8
_0-1_LAYER1
  6
CONTINUOUS
 62
    3
 10
1299.5
 20
627.5771165000001
 11
1299.5
 21
927.5771165000001
  0
LINE
  8
_0-1_LAYER1
  6
CONTINUOUS
 62
    3
 10
1076.5
 20
927.5771165000001
 11
1076.5
 21
471.77063650000014
  0
LINE
  8
_0-1_LAYER1
  6
CONTINUOUS
 62
    3
 10
958
 20
1052.7260455000003
 11
958
 21
616.45043050000004
  0
ARC
  8
_0-1_LAYER1
  6
CONTINUOUS
 62
    3
 10
962
 20
1052.7260455000003
 40
4
 50
132.997467
 51
180
  0
LINE
  8
_0-1_LAYER1
  6
CONTINUOUS
 62
    3
 10
1422
 20
616.45043050000004
 11
1422
 21
1052.7211865000002
  0
LINE
  8
_0-1_LAYER1
  6
CONTINUOUS
 62
    3
 10
954
 20
1052.7260455000003
 11
954
 21
616.45043050000004
  0
ARC
  8
_0-1_LAYER1
  6
CONTINUOUS
 62
    3
 10
962
 20
1052.7260455000003
 40
8
 50
132.997467
 51
180
  0
LINE
  8
_0-1_LAYER1
  6
CONTINUOUS
 62
    3
 10
1291.5
 20
1123.5771164999999
 11
1084.5
 21
1123.5771164999999
  0
ARC
  8
_0-1_LAYER1
  6
CONTINUOUS
 62
    3
 10
1410
 20
1135.5771164999999
 40
4
 50
270
 51
0
  0
ARC
  8
_0-1_LAYER1
  6
CONTINUOUS
 62
    3
 10
1410
 20
1135.5771164999999
 40
8
 50
270
 51
0
  0
LINE
  8
_0-1_LAYER1
  6
CONTINUOUS
 62
    3
 10
1398
 20
1127.5771164999999
 11
1382
 21
1127.5771164999999
  0
ARC
  8
_0-1_LAYER1
  6
CONTINUOUS
 62
    3
 10
1291.5
 20
1119.5771164999999
 40
4
 50
0
 51
90
  0
ARC
  8
_0-1_LAYER1
  6
CONTINUOUS
 62
    3
 10
1084.5
 20
1119.5771164999999
 40
4
 50
90
 51
180
  0
LINE
  8
_0-1_LAYER1
  6
CONTINUOUS
 62
    3
 10
1291.5
 20
1127.5771164999999
 11
1084.5
 21
1127.5771164999999
  0
ARC
  8
_0-1_LAYER1
  6
CONTINUOUS
 62
    3
 10
1291.5
 20
1119.5771164999999
 40
8
 50
0
 51
90
  0
ARC
  8
_0-1_LAYER1
  6
CONTINUOUS
 62
    3
 10
1084.5
 20
1119.5771164999999
 40
8
 50
90
 51
180
  0
ARC
  8
_0-1_LAYER1
  6
CONTINUOUS
 62
    3
 10
966
 20
1135.5771164999999
 40
8
 50
180
 51
270
  0
ARC
  8
_0-1_LAYER1
  6
CONTINUOUS
 62
    3
 10
966
 20
1135.5771164999999
 40
4
 50
180
 51
270
  0
LINE
  8
_0-1_LAYER1
  6
CONTINUOUS
 62
    3
 10
984
 20
1127.5771164999999
 11
1013.554895
 21
1127.5771164999999
  0
LINE
  8
_0-1_LAYER1
  6
CONTINUOUS
 62
    3
 10
602.35733100000004
 20
230.12818250000009
 11
951.8368660000001
 21
410.8971325
  0
ARC
  8
_0-1_LAYER1
  6
CONTINUOUS
 62
    3
 10
950
 20
414.45043050000004
 40
4
 50
297.33655599999997
 51
0.0000000000000381
  0
LINE
  8
_0-1_LAYER1
  6
CONTINUOUS
 62
    3
 10
604.40470700000003
 20
226.15104550000001
 11
953.66160000000013
 21
406.09534450000001
  0
ARC
  8
_0-1_LAYER1
  6
CONTINUOUS
 62
    3
 10
950
 20
413.2081975000001
 40
8
 50
297.23879499999998
 51
0
  0
LINE
  8
_0-1_LAYER1
  6
CONTINUOUS
 62
    3
 10
1418
 20
1052.7236165000002
 11
1418
 21
616.45043050000004
  0
LINE
  8
_0-1_LAYER1
  6
DASHED3
 62
    3
 10
958
 20
413.2081975000001
 11
958
 21
616.45043050000004
  0
LINE
  8
_0-1_LAYER1
  6
DASHED3
 62
    3
 10
954
 20
616.45043050000004
 11
954
 21
414.45043050000004
  0
LINE
  8
_0-1_LAYER1
  6
CONTINUOUS
 62
    3
 10
988
 20
1131.5771164999999
 11
988
 21
1531.5771164999999
  0
LINE
  8
_0-1_LAYER1
  6
CONTINUOUS
 62
    3
 10
988
 20
1531.5771164999999
 11
1388
 21
1531.5771164999999
  0
LINE
  8
_0-1_LAYER1
  6
CONTINUOUS
 62
    3
 10
1388
 20
1531.5771164999999
 11
1388
 21
1131.5771164999999
  0
LINE
  8
_0-1_LAYER1
  6
CONTINUOUS
 62
    3
 10
1388
 20
1131.5771164999999
 11
988
 21
1131.5771164999999
  0
LINE
  8
_0-1_LAYER1
  6
CONTINUOUS
 62
    1
 10
1388
 20
1531.5771164999999
 11
988
 21
1131.5771164999999
  0
LINE
  8
_0-1_LAYER1
  6
CONTINUOUS
 62
    1
 10
1388
 20
1131.5771164999999
 11
988
 21
1531.5771164999999
  0
LINE
  8
_0-1_LAYER1
  6
CONTINUOUS
 62
    1
 10
2521
 20
-282.4228834999999
 11
1346
 21
304.5771165000001
  0
LINE
  8
_0-1_LAYER1
  6
CONTINUOUS
 62
    1
 10
1402
 20
417.5771165000001
 11
1346
 21
304.5771165000001
  0
LINE
  8
_0-1_LAYER1
  6
CONTINUOUS
 62
    1
 10
1395
 20
414.5771165000001
 11
2521
 21
-147.4228834999999
  0
LINE
  8
_0-1_LAYER1
  6
CONTINUOUS
 62
    1
 10
-145
 20
-282.4228834999999
 11
1030
 21
304.5771165000001
  0
LINE
  8
_0-1_LAYER1
  6
CONTINUOUS
 62
    1
 10
981
 20
414.5771165000001
 11
-145
 21
-147.4228834999999
  0
LINE
  8
_0-1_LAYER1
  6
CONTINUOUS
 62
    1
 10
974
 20
417.5771165000001
 11
1030
 21
304.5771165000001
  0
ARC
  8
_0-1_LAYER1
  6
CONTINUOUS
 62
    1
 10
976.80173800000011
 20
590.92784449999999
 40
42
 50
180
 51
0
  0
ARC
  8
_0-1_LAYER1
  6
CONTINUOUS
 62
    1
 10
976.80173800000011
 20
590.92784449999999
 40
66
 50
180
 51
0
  0
LINE
  8
_0-1_LAYER1
  6
CONTINUOUS
 62
    1
 10
1041.8017380000001
 20
656.92784449999999
 11
1017.8017380000001
 21
656.92784449999999
  0
LINE
  8
_0-1_LAYER1
  6
CONTINUOUS
 62
    1
 10
1017.8017380000001
 20
590.92784449999999
 11
1017.8017380000001
 21
656.92784449999999
  0
LINE
  8
_0-1_LAYER1
  6
CONTINUOUS
 62
    1
 10
1041.8017380000001
 20
656.92784449999999
 11
1042.8017380000001
 21
590.92784449999999
  0
LINE
  8
_0-1_LAYER1
  6
CONTINUOUS
 62
    1
 10
952.80173800000011
 20
612.92784449999999
 11
934.80173800000011
 21
612.92784449999999
  0
LINE
  8
_0-1_LAYER1
  6
CONTINUOUS
 62
    1
 10
910.80173800000011
 20
612.92784449999999
 11
892.80173800000011
 21
612.92784449999999
  0
LINE
  8
_0-1_LAYER1
  6
CONTINUOUS
 62
    1
 10
892.80173800000011
 20
612.92784449999999
 11
922.80173800000011
 21
664.92784449999999
  0
LINE
  8
_0-1_LAYER1
  6
CONTINUOUS
 62
    1
 10
922.80173800000011
 20
664.92784449999999
 11
952.80173800000011
 21
612.92784449999999
  0
LINE
  8
_0-1_LAYER1
  6
CONTINUOUS
 62
    1
 10
910.80173800000011
 20
590.92784449999999
 11
910.80173800000011
 21
612.92784449999999
  0
LINE
  8
_0-1_LAYER1
  6
CONTINUOUS
 62
    1
 10
934.80173800000011
 20
590.92784449999999
 11
934.80173800000011
 21
612.92784449999999
  0
ARC
  8
_0-1_LAYER1
  6
CONTINUOUS
 62
    1
 10
1080.9331460000001
 20
1017.5771165000001
 40
52
 50
0
 51
180
  0
ARC
  8
_0-1_LAYER1
  6
CONTINUOUS
 62
    1
 10
1080.9331460000001
 20
1017.5771165000001
 40
82
 50
0
 51
180
  0
LINE
  8
_0-1_LAYER1
  6
CONTINUOUS
 62
    1
 10
1161.9331460000001
 20
935.5771165000001
 11
1131.9331460000001
 21
935.5771165000001
  0
LINE
  8
_0-1_LAYER1
  6
CONTINUOUS
 62
    1
 10
1131.9331460000001
 20
1017.5771165000001
 11
1131.9331460000001
 21
935.5771165000001
  0
LINE
  8
_0-1_LAYER1
  6
CONTINUOUS
 62
    1
 10
1161.9331460000001
 20
935.5771165000001
 11
1162.9331460000001
 21
1017.5771165000001
  0
LINE
  8
_0-1_LAYER1
  6
CONTINUOUS
 62
    1
 10
1051.9331460000001
 20
990.5771165000001
 11
1028.9331460000001
 21
990.5771165000001
  0
LINE
  8
_0-1_LAYER1
  6
CONTINUOUS
 62
    1
 10
998.93314600000008
 20
990.5771165000001
 11
976.93314600000008
 21
990.5771165000001
  0
LINE
  8
_0-1_LAYER1
  6
CONTINUOUS
 62
    1
 10
976.93314600000008
 20
990.5771165000001
 11
1013.9331460000001
 21
925.5771165000001
  0
LINE
  8
_0-1_LAYER1
  6
CONTINUOUS
 62
    1
 10
1013.9331460000001
 20
925.5771165000001
 11
1051.9331460000001
 21
990.5771165000001
  0
LINE
  8
_0-1_LAYER1
  6
CONTINUOUS
 62
    1
 10
998.93314600000008
 20
1017.5771165000001
 11
998.93314600000008
 21
990.5771165000001
  0
LINE
  8
_0-1_LAYER1
  6
CONTINUOUS
 62
    1
 10
1028.9331460000001
 20
1017.5771165000001
 11
1028.9331460000001
 21
990.5771165000001
  0
LINE
  8
_0-1_LAYER1
  6
CONTINUOUS
 62
    1
 10
1226
 20
340.5771165000001
 11
1203
 21
340.5771165000001
  0
LINE
  8
_0-1_LAYER1
  6
CONTINUOUS
 62
    1
 10
1173
 20
340.5771165000001
 11
1151
 21
340.5771165000001
  0
LINE
  8
_0-1_LAYER1
  6
CONTINUOUS
 62
    1
 10
1151
 20
340.5771165000001
 11
1188
 21
405.5771165000001
  0
LINE
  8
_0-1_LAYER1
  6
CONTINUOUS
 62
    1
 10
1188
 20
405.5771165000001
 11
1226
 21
340.5771165000001
  0
LINE
  8
_0-1_LAYER1
  6
CONTINUOUS
 62
    1
 10
1173
 20
212.5771165000001
 11
1173
 21
340.5771165000001
  0
LINE
  8
_0-1_LAYER1
  6
CONTINUOUS
 62
    1
 10
1203
 20
212.5771165000001
 11
1203
 21
340.5771165000001
  0
LINE
  8
_0-1_LAYER1
  6
CONTINUOUS
 62
    1
 10
1203
 20
212.5771165000001
 11
1173
 21
212.5771165000001
  0
LINE
  8
_0-1_LAYER1
  6
CONTINUOUS
 62
    3
 10
1228
 20
1816.5771164999999
 11
1148
 21
1816.5771164999999
  0
LINE
  8
_0-1_LAYER1
  6
CONTINUOUS
 62
    3
 10
1148
 20
1814.5771164999999
 11
1148
 21
1800.5771164999999
  0
LINE
  8
_0-1_LAYER1
  6
CONTINUOUS
 62
    3
 10
1228
 20
1814.5771164999999
 11
1228
 21
1800.5771164999999
  0
ARC
  8
_0-1_LAYER1
  6
CONTINUOUS
 62
    3
 10
1188
 20
1801.5771164999999
 40
43
 50
20.420000000000005
 51
159.58000000000001
  0
LINE
  8
_0-1_LAYER1
  6
CONTINUOUS
 62
    3
 10
1148
 20
1800.5771164999999
 11
1228
 21
1800.5771164999999
  0
LINE
  8
_0-1_LAYER1
  6
CONTINUOUS
 62
    3
 10
1198
 20
1582.5771164999999
 11
1198
 21
1220.5771164999999
  0
LINE
  8
_0-1_LAYER1
  6
CONTINUOUS
 62
    3
 10
1178
 20
1587.5771164999999
 11
1178
 21
1220.5771164999999
  0
LINE
  8
_0-1_LAYER1
  6
CONTINUOUS
 62
    3
 10
1188
 20
1200.5771164999999
 11
1198
 21
1220.5771164999999
  0
LINE
  8
_0-1_LAYER1
  6
CONTINUOUS
 62
    3
 10
1188
 20
1200.5771164999999
 11
1178
 21
1220.5771164999999
  0
LINE
  8
_0-1_LAYER1
  6
CONTINUOUS
 62
    3
 10
1148
 20
1814.5771164999999
 11
1228
 21
1814.5771164999999
  0
LINE
  8
_0-1_LAYER1
  6
CONTINUOUS
 62
    3
 10
1176
 20
1587.5771164999999
 11
1200
 21
1581.5771164999999
  0
LINE
  8
_0-1_LAYER1
  6
CONTINUOUS
 62
    3
 10
1200
 20
1581.5771164999999
 11
1200
 21
1800.5771164999999
  0
LINE
  8
_0-1_LAYER1
  6
CONTINUOUS
 62
    3
 10
1176
 20
1800.5771164999999
 11
1176
 21
1587.5771164999999
  0
LINE
  8
_0-1_LAYER1
  6
CONTINUOUS
 62
    3
 10
1200
 20
1561.5771164999999
 11
1176
 21
1567.5771164999999
  0
LINE
  8
_0-1_LAYER1
  6
CONTINUOUS
 62
    3
 10
1200
 20
1541.5771164999999
 11
1176
 21
1547.5771164999999
  0
LINE
  8
_0-1_LAYER1
  6
CONTINUOUS
 62
    3
 10
1200
 20
1521.5771164999999
 11
1176
 21
1527.5771164999999
  0
LINE
  8
_0-1_LAYER1
  6
CONTINUOUS
 62
    3
 10
1200
 20
1501.5771164999999
 11
1176
 21
1507.5771164999999
  0
LINE
  8
_0-1_LAYER1
  6
CONTINUOUS
 62
    3
 10
1200
 20
1481.5771164999999
 11
1176
 21
1487.5771164999999
  0
LINE
  8
_0-1_LAYER1
  6
CONTINUOUS
 62
    3
 10
1200
 20
1461.5771164999999
 11
1176
 21
1467.5771164999999
  0
LINE
  8
_0-1_LAYER1
  6
CONTINUOUS
 62
    3
 10
1200
 20
1441.5771164999999
 11
1176
 21
1447.5771164999999
  0
LINE
  8
_0-1_LAYER1
  6
CONTINUOUS
 62
    3
 10
1200
 20
1421.5771164999999
 11
1176
 21
1427.5771164999999
  0
LINE
  8
_0-1_LAYER1
  6
CONTINUOUS
 62
    3
 10
1200
 20
1401.5771164999999
 11
1176
 21
1407.5771164999999
  0
LINE
  8
_0-1_LAYER1
  6
CONTINUOUS
 62
    3
 10
1200
 20
1381.5771164999999
 11
1176
 21
1387.5771164999999
  0
LINE
  8
_0-1_LAYER1
  6
CONTINUOUS
 62
    3
 10
1200
 20
1361.5771164999999
 11
1176
 21
1367.5771164999999
  0
LINE
  8
_0-1_LAYER1
  6
CONTINUOUS
 62
    3
 10
1200
 20
1341.5771164999999
 11
1176
 21
1347.5771164999999
  0
LINE
  8
_0-1_LAYER1
  6
CONTINUOUS
 62
    3
 10
1200
 20
1321.5771164999999
 11
1176
 21
1327.5771164999999
  0
LINE
  8
_0-1_LAYER1
  6
CONTINUOUS
 62
    3
 10
1200
 20
1301.5771164999999
 11
1176
 21
1307.5771164999999
  0
LINE
  8
_0-1_LAYER1
  6
CONTINUOUS
 62
    3
 10
1200
 20
1281.5771164999999
 11
1176
 21
1287.5771164999999
  0
LINE
  8
_0-1_LAYER1
  6
CONTINUOUS
 62
    3
 10
1200
 20
1261.5771164999999
 11
1176
 21
1267.5771164999999
  0
LINE
  8
_0-1_LAYER1
  6
CONTINUOUS
 62
    3
 10
1200
 20
1241.5771164999999
 11
1176
 21
1247.5771164999999
  0
LINE
  8
_0-1_LAYER1
  6
CONTINUOUS
 62
    3
 10
1200
 20
1221.5771164999999
 11
1176
 21
1227.5771164999999
  0
LINE
  8
_0-1_LAYER1
  6
CONTINUOUS
 62
    1
 10
228
 20
746.5771165000001
 11
244
 21
730.5771165000001
  0
LINE
  8
_0-1_LAYER1
  6
CONTINUOUS
 62
    1
 10
265
 20
709.5771165000001
 11
282
 21
694.5771165000001
  0
LINE
  8
_0-1_LAYER1
  6
CONTINUOUS
 62
    1
 10
282
 20
694.5771165000001
 11
208
 21
674.5771165000001
  0
LINE
  8
_0-1_LAYER1
  6
CONTINUOUS
 62
    1
 10
208
 20
674.5771165000001
 11
228
 21
746.5771165000001
  0
LINE
  8
_0-1_LAYER1
  6
CONTINUOUS
 62
    1
 10
356
 20
800.5771165000001
 11
265
 21
709.5771165000001
  0
LINE
  8
_0-1_LAYER1
  6
CONTINUOUS
 62
    1
 10
334
 20
820.5771165000001
 11
244
 21
730.5771165000001
  0
LINE
  8
_0-1_LAYER1
  6
CONTINUOUS
 62
    1
 10
334
 20
820.5771165000001
 11
356
 21
800.5771165000001
  0
ARC
  8
_0-1_LAYER1
  6
CONTINUOUS
 62
    1
 10
841
 20
1257.5771164999999
 40
52
 50
325
 51
145
  0
ARC
  8
_0-1_LAYER1
  6
CONTINUOUS
 62
    1
 10
841
 20
1257.5771164999999
 40
82
 50
325
 51
145
  0
LINE
  8
_0-1_LAYER1
  6
CONTINUOUS
 62
    1
 10
860
 20
1143.5771164999999
 11
836
 21
1160.5771164999999
  0
LINE
  8
_0-1_LAYER1
  6
CONTINUOUS
 62
    1
 10
883
 20
1227.5771164999999
 11
836
 21
1160.5771164999999
  0
LINE
  8
_0-1_LAYER1
  6
CONTINUOUS
 62
    1
 10
860
 20
1143.5771164999999
 11
908
 21
1210.5771164999999
  0
LINE
  8
_0-1_LAYER1
  6
CONTINUOUS
 62
    1
 10
803
 20
1251.5771164999999
 11
784
 21
1264.5771164999999
  0
LINE
  8
_0-1_LAYER1
  6
CONTINUOUS
 62
    1
 10
759
 20
1281.5771164999999
 11
741
 21
1294.5771164999999
  0
LINE
  8
_0-1_LAYER1
  6
CONTINUOUS
 62
    1
 10
741
 20
1294.5771164999999
 11
734
 21
1220.5771164999999
  0
LINE
  8
_0-1_LAYER1
  6
CONTINUOUS
 62
    1
 10
734
 20
1220.5771164999999
 11
803
 21
1251.5771164999999
  0
LINE
  8
_0-1_LAYER1
  6
CONTINUOUS
 62
    1
 10
774
 20
1304.5771164999999
 11
759
 21
1281.5771164999999
  0
LINE
  8
_0-1_LAYER1
  6
CONTINUOUS
 62
    1
 10
799
 20
1287.5771164999999
 11
784
 21
1264.5771164999999
  0
LINE
  8
_0-1_LAYER1
  6
DASHED3
 62
    3
 10
1422
 20
1335.5771164999999
 11
1581
 21
1232.5771164999999
  0
LINE
  8
_0-1_LAYER1
  6
DASHED3
 62
    3
 10
1581
 20
1230.5771164999999
 11
1422
 21
1333.5771164999999
  0
LINE
  8
_0-1_LAYER1
  6
CONTINUOUS
 62
    3
 10
1412
 20
1335.5771164999999
 11
1422
 21
1335.5771164999999
  0
LINE
  8
_0-1_LAYER1
  6
CONTINUOUS
 62
    3
 10
1422
 20
414.5771165000001
 11
1486.498079
 21
414.5771165000001
  0
LINE
  8
_0-1_LAYER1
  6
CONTINUOUS
 62
    3
 10
1588
 20
1224.5771164999999
 11
1493.498079
 21
420.5771165000001
  0
ARC
  8
_0-1_LAYER1
  6
CONTINUOUS
 62
    3
 10
1486.498079
 20
421.5771165000001
 40
7
 50
270
 51
351.45999999999998
  0
ARC
  8
_0-1_LAYER1
  6
CONTINUOUS
 62
    3
 10
1581
 20
1225.5771164999999
 40
7
 50
351.47000000000008
 51
90.000000000000057
  0
LINE
  8
_0-1_LAYER1
  6
CONTINUOUS
 62
    3
 10
1412
 20
1255.5771164999999
 11
1412
 21
1335.5771164999999
  0
LINE
  8
_0-1_LAYER1
  6
CONTINUOUS
 62
    3
 10
1422
 20
416.5771165000001
 11
1486.498079
 21
416.5771165000001
  0
LINE
  8
_0-1_LAYER1
  6
CONTINUOUS
 62
    3
 10
1586
 20
1224.5771164999999
 11
1491.498079
 21
420.5771165000001
  0
ARC
  8
_0-1_LAYER1
  6
CONTINUOUS
 62
    3
 10
1486.498079
 20
421.5771165000001
 40
5
 50
270
 51
351.43000000000001
  0
LINE
  8
_0-1_LAYER1
  6
CONTINUOUS
 62
    3
 10
1414
 20
1333.5771164999999
 11
1422
 21
1333.5771164999999
  0
ARC
  8
_0-1_LAYER1
  6
CONTINUOUS
 62
    3
 10
1581
 20
1225.5771164999999
 40
5
 50
351.43000000000001
 51
90.000000000000028
  0
LINE
  8
_0-1_LAYER1
  6
CONTINUOUS
 62
    3
 10
1414
 20
1333.5771164999999
 11
1414
 21
1255.5771164999999
  0
LINE
  8
_0-1_LAYER1
  6
CONTINUOUS
 62
    1
 10
1789.1938679999998
 20
695.59962450000012
 11
1789.3187520000001
 21
688.60073850000003
  0
LINE
  8
_0-1_LAYER1
  6
CONTINUOUS
 62
    1
 10
1876.6268089999999
 20
728.16465149999999
 11
1880.6975339999999
 21
724.23664950000011
  0
LINE
  8
_0-1_LAYER1
  6
CONTINUOUS
 62
    1
 10
1862.1822499999998
 20
696.90197850000004
 11
1862.253612
 21
692.90261450000003
  0
LINE
  8
_0-1_LAYER1
  6
CONTINUOUS
 62
    1
 10
1824.706447
 20
723.23758450000014
 11
1824.5280419999999
 21
733.23599250000007
  0
LINE
  8
_0-1_LAYER1
  6
CONTINUOUS
 62
    1
 10
1769.4297530000001
 20
738.25381250000009
 11
1769.501115
 21
734.25444949999996
  0
LINE
  8
_0-1_LAYER1
  6
CONTINUOUS
 62
    1
 10
1715.5097090000002
 20
733.29106450000018
 11
1711.385462
 21
740.21858850000012
  0
LINE
  8
_0-1_LAYER1
  6
CONTINUOUS
 62
    1
 10
1777.7496080000001
 20
720.39940049999996
 11
1777.874491
 21
713.40051549999998
  0
LINE
  8
_0-1_LAYER1
  6
CONTINUOUS
 62
    1
 10
1850.7379900000001
 20
721.70175450000011
 11
1850.8093509999999
 21
717.70239149999998
  0
LINE
  8
_0-1_LAYER1
  6
CONTINUOUS
 62
    1
 10
1722.0261270000001
 20
704.40272249999998
 11
1722.0618080000002
 21
702.40304050000009
  0
LINE
  8
_0-1_LAYER1
  6
CONTINUOUS
 62
    1
 10
1837.489517
 20
679.45867250000015
 11
1827.4911080000002
 21
679.28026750000004
  0
LINE
  8
_0-1_LAYER1
  6
CONTINUOUS
 62
    1
 10
1787.2670990000001
 20
803.58243650000009
 11
1787.1422160000002
 21
810.58132250000017
  0
LINE
  8
_0-1_LAYER1
  6
CONTINUOUS
 62
    1
 10
1935.0829800000001
 20
815.22139149999998
 11
1929.2444989999999
 21
806.11578150000014
  0
LINE
  8
_0-1_LAYER1
  6
CONTINUOUS
 62
    1
 10
1875.8061480000001
 20
774.15733050000017
 11
1879.7341489999999
 21
778.22805549999998
  0
LINE
  8
_0-1_LAYER1
  6
CONTINUOUS
 62
    1
 10
1860.2554810000001
 20
804.88478950000012
 11
1860.184119
 21
808.88415350000014
  0
LINE
  8
_0-1_LAYER1
  6
CONTINUOUS
 62
    1
 10
1823.743062
 20
777.22898950000013
 11
1823.9214660000002
 21
767.23058149999997
  0
LINE
  8
_0-1_LAYER1
  6
CONTINUOUS
 62
    1
 10
1769.0372629999999
 20
760.25031150000018
 11
1768.965901
 21
764.24967450000008
  0
LINE
  8
_0-1_LAYER1
  6
CONTINUOUS
 62
    1
 10
1714.9744950000002
 20
763.28628950000007
 11
1711.100015
 21
756.21604249999996
  0
LINE
  8
_0-1_LAYER1
  6
CONTINUOUS
 62
    1
 10
1909.5695860000001
 20
843.77076450000004
 11
1905.7129460000001
 21
835.7006765000001
  0
LINE
  8
_0-1_LAYER1
  6
CONTINUOUS
 62
    1
 10
1817.102535
 20
869.12514550000014
 11
1813.2815770000002
 21
859.05537550000008
  0
LINE
  8
_0-1_LAYER1
  6
CONTINUOUS
 62
    1
 10
1751.220082
 20
861.94863050000004
 11
1751.3806460000001
 21
852.95006250000006
  0
LINE
  8
_0-1_LAYER1
  6
CONTINUOUS
 62
    1
 10
1731.008405
 20
817.5809835
 11
1728.830318
 21
827.54371050000009
  0
LINE
  8
_0-1_LAYER1
  6
CONTINUOUS
 62
    1
 10
1775.822838
 20
828.38221250000015
 11
1775.6979550000001
 21
835.38109850000001
  0
LINE
  8
_0-1_LAYER1
  6
CONTINUOUS
 62
    1
 10
1922.6567190000001
 20
839.00348650000001
 11
1917.8002380000003
 21
830.91555749999998
  0
LINE
  8
_0-1_LAYER1
  6
CONTINUOUS
 62
    1
 10
1966.4883770000001
 20
792.77810650000015
 11
1960.3822890000001
 21
798.67010849999997
  0
LINE
  8
_0-1_LAYER1
  6
CONTINUOUS
 62
    1
 10
1864.361887
 20
798.95710650000001
 11
1868.2898880000002
 21
803.02783150000005
  0
LINE
  8
_0-1_LAYER1
  6
CONTINUOUS
 62
    1
 10
1848.81122
 20
829.68456549999996
 11
1848.7398579999999
 21
833.68392949999998
  0
LINE
  8
_0-1_LAYER1
  6
CONTINUOUS
 62
    1
 10
1812.2988009999999
 20
802.02876650000007
 11
1812.477206
 21
792.03035750000004
  0
LINE
  8
_0-1_LAYER1
  6
CONTINUOUS
 62
    1
 10
1757.5930020000001
 20
785.05008750000002
 11
1757.5216400000002
 21
789.04945050000015
  0
LINE
  8
_0-1_LAYER1
  6
CONTINUOUS
 62
    1
 10
1703.5302340000001
 20
788.08606550000013
 11
1699.6557540000001
 21
781.01581850000002
  0
LINE
  8
_0-1_LAYER1
  6
CONTINUOUS
 62
    1
 10
1896.214845
 20
863.53565550000008
 11
1894.268685
 21
860.50045250000016
  0
LINE
  8
_0-1_LAYER1
  6
CONTINUOUS
 62
    1
 10
1805.6582750000002
 20
893.92492149999998
 11
1801.8373160000001
 21
883.85515150000015
  0
LINE
  8
_0-1_LAYER1
  6
CONTINUOUS
 62
    1
 10
1859.0780100000002
 20
870.87428550000004
 11
1855.0786470000003
 21
870.80292350000013
  0
LINE
  8
_0-1_LAYER1
  6
CONTINUOUS
 62
    1
 10
1921.7988270000001
 20
774.97799150000014
 11
1918.9598679999999
 21
765.92590250000012
  0
LINE
  8
_0-1_LAYER1
  6
CONTINUOUS
 62
    3
 10
1632.3027240000001
 20
728.13735250000013
 11
1810.619651
 21
938.40702350000015
  0
LINE
  8
_0-1_LAYER1
  6
CONTINUOUS
 62
    3
 10
1629.3027240000001
 20
514.13735250000013
 11
2466.048522
 21
176.60543150000012
  0
LINE
  8
_0-1_LAYER1
  6
CONTINUOUS
 62
    1
 10
1661.3027240000001
 20
878.13735250000013
 11
1609.3027240000001
 21
737.13735250000013
  0
LINE
  8
_0-1_LAYER1
  6
CONTINUOUS
 62
    3
 10
1629.3027240000001
 20
514.13735250000013
 11
1592.3027240000001
 21
420.13735250000013
  0
LINE
  8
_0-1_LAYER1
  6
CONTINUOUS
 62
    3
 10
1592.3027240000001
 20
420.13735250000013
 11
1499.3027240000001
 21
458.13735250000013
  0
LINE
  8
_0-1_LAYER1
  6
CONTINUOUS
 62
    1
 10
2466.048522
 20
542.58470650000004
 11
1734.3027240000001
 21
837.13735250000013
  0
LINE
  8
_0-1_LAYER1
  6
CONTINUOUS
 62
    1
 10
1661.3027240000001
 20
878.13735250000013
 11
1738.3027240000001
 21
847.13735250000013
  0
LINE
  8
_0-1_LAYER1
  6
CONTINUOUS
 62
    1
 10
1738.3027240000001
 20
847.13735250000013
 11
1734.3027240000001
 21
837.13735250000013
  0
LINE
  8
_0-1_LAYER1
  6
CONTINUOUS
 62
    3
 10
2466.048522
 20
391.78849950000017
 11
1609.3027240000001
 21
737.13735250000013
  0
LINE
  8
_0-1_LAYER1
  6
CONTINUOUS
 62
    3
 10
1389
 20
1431.5771164999999
 11
1387.1802729999999
 21
1533.5608825000002
  0
LINE
  8
_0-1_LAYER1
  6
CONTINUOUS
 62
    3
 10
1386.216113
 20
1531.5433605000001
 11
1388.8743420000001
 21
1382.5670745
  0
LINE
  8
_0-1_LAYER1
  6
CONTINUOUS
 62
    3
 10
1240.203669
 20
1530.9383355000002
 11
1387.1802729999999
 21
1533.5608825000002
  0
LINE
  8
_0-1_LAYER1
  6
CONTINUOUS
 62
    3
 10
1240.2393500000001
 20
1528.9386535000001
 11
1386.216113
 21
1531.5433605000001
  0
LINE
  8
_0-1_LAYER1
  6
CONTINUOUS
 62
    3
 10
1389
 20
1431.5771164999999
 11
1462.219533
 21
1363.8726105000003
  0
LINE
  8
_0-1_LAYER1
  6
CONTINUOUS
 62
    3
 10
1568.0048670000001
 20
1264.7440935000002
 11
1649.544255
 21
1179.1851764999999
  0
LINE
  8
_0-1_LAYER1
  6
CONTINUOUS
 62
    3
 10
1388.018
 20
1430.5594345000002
 11
1461.2196920000001
 21
1363.8547704999999
  0
LINE
  8
_0-1_LAYER1
  6
CONTINUOUS
 62
    3
 10
1569.0225480000001
 20
1263.7620924999999
 11
1647.5445730000001
 21
1179.1494955000001
  0
LINE
  8
_0-1_LAYER1
  6
DASHED3
 62
    3
 10
1568.0048670000001
 20
1264.7440935000002
 11
1462.219533
 21
1363.8726105000003
  0
LINE
  8
_0-1_LAYER1
  6
DASHED3
 62
    3
 10
1461.2196920000001
 20
1363.8547704999999
 11
1569.0225480000001
 21
1263.7620924999999
  0
LINE
  8
_0-1_LAYER1
  6
CONTINUOUS
 62
    3
 10
1647.5445730000001
 20
1179.1494955000001
 11
1604.5863220000001
 21
1120.3737455000003
  0
LINE
  8
_0-1_LAYER1
  6
CONTINUOUS
 62
    3
 10
1649.544255
 20
1179.1851764999999
 11
1606.586004
 21
1120.4094265000001
  0
LINE
  8
_0-1_LAYER1
  6
CONTINUOUS
 62
    3
 10
1969.4522179999999
 20
794.83130950000009
 11
1955.2225210000001
 21
807.57947450000006
  0
LINE
  8
_0-1_LAYER1
  6
CONTINUOUS
 62
    3
 10
1970.4520590000002
 20
794.84915050000018
 11
1604.5863220000001
 21
1120.3737455000003
  0
LINE
  8
_0-1_LAYER1
  6
CONTINUOUS
 62
    3
 10
1606.586004
 20
1120.4094265000001
 11
1970.4342190000002
 21
795.84899050000013
  0
LINE
  8
_0-1_LAYER1
  6
CONTINUOUS
 62
    3
 10
1955.1868399999998
 20
809.57915550000007
 11
1970.4342190000002
 21
795.84899050000013
  0
LINE
  8
_0-1_LAYER1
  6
CONTINUOUS
 62
    3
 10
2043.784721
 20
891.22334950000004
 11
1970.4342190000002
 21
795.84899050000013
  0
LINE
  8
_0-1_LAYER1
  6
CONTINUOUS
 62
    3
 10
1969.2548500000003
 20
957.70559750000007
 11
1896.214845
 21
863.53565550000008
  0
LINE
  8
_0-1_LAYER1
  6
CONTINUOUS
 62
    3
 10
1824.3027240000001
 20
213.13735250000013
 11
1905.3027240000001
 21
374.13735250000013
  0
LINE
  8
_0-1_LAYER1
  6
CONTINUOUS
 62
    3
 10
1635.3027240000001
 20
508.13735250000013
 11
1555.3027240000001
 21
347.13735250000013
  0
LINE
  8
_0-1_LAYER1
  6
CONTINUOUS
 62
    3
 10
1824.3027240000001
 20
213.13735250000013
 11
1555.3027240000001
 21
347.13735250000013
  0
LINE
  8
_0-1_LAYER1
  6
CONTINUOUS
 62
    3
 10
1905.3027240000001
 20
374.13735250000013
 11
1635.3027240000001
 21
508.13735250000013
  0
LINE
  8
_0-1_LAYER1
  6
CONTINUOUS
 62
    1
 10
1635.3027240000001
 20
508.13735250000013
 11
1824.3027240000001
 21
213.13735250000013
  0
LINE
  8
_0-1_LAYER1
  6
CONTINUOUS
 62
    3
 10
1968.3827350000001
 20
796.69030650000013
 11
1838
 21
644.5771165000001
  0
LINE
  8
_0-1_LAYER1
  6
CONTINUOUS
 62
    3
 10
260
 20
838.5771165000001
 11
1078
 21
1640.5771164999999
  0
LINE
  8
_0-1_LAYER1
  6
CONTINUOUS
 62
    3
 10
1078
 20
1640.5771164999999
 11
1298
 21
1640.5771164999999
  0
LINE
  8
_0-1_LAYER1
  6
CONTINUOUS
 62
    3
 10
1298
 20
1640.5771164999999
 11
2116
 21
838.5771165000001
  0
LINE
  8
_0-1_LAYER1
  6
CONTINUOUS
 62
    3
 10
2247
 20
729.5771165000001
 11
2224
 21
958.5771165000001
  0
LINE
  8
_0-1_LAYER1
  6
CONTINUOUS
 62
    3
 10
2224
 20
958.5771165000001
 11
1394
 21
1770.5771164999999
  0
LINE
  8
_0-1_LAYER1
  6
CONTINUOUS
 62
    3
 10
1323
 20
1800.5771164999999
 11
1053
 21
1800.5771164999999
  0
ARC
  8
_0-1_LAYER1
  6
CONTINUOUS
 62
    3
 10
1323
 20
1700.5771164999999
 40
100
 50
44.29999999999999
 51
90
  0
LINE
  8
_0-1_LAYER1
  6
CONTINUOUS
 62
    3
 10
152
 20
958.5771165000001
 11
982
 21
1770.5771164999999
  0
ARC
  8
_0-1_LAYER1
  6
CONTINUOUS
 62
    3
 10
1053
 20
1700.5771164999999
 40
100
 50
90
 51
135.70000000000002
  0
LINE
  8
_0-1_LAYER1
  6
CONTINUOUS
 62
    3
 10
2124
 20
759.5771165000001
 11
2247
 21
729.5771165000001
  0
LINE
  8
_0-1_LAYER1
  6
CONTINUOUS
 62
    3
 10
2124
 20
759.5771165000001
 11
2116
 21
838.5771165000001
  0
LINE
  8
_0-1_LAYER1
  6
CONTINUOUS
 62
    3
 10
129
 20
729.5771165000001
 11
152
 21
958.5771165000001
  0
LINE
  8
_0-1_LAYER1
  6
CONTINUOUS
 62
    3
 10
252
 20
759.5771165000001
 11
129
 21
729.5771165000001
  0
LINE
  8
_0-1_LAYER1
  6
CONTINUOUS
 62
    3
 10
252
 20
759.5771165000001
 11
260
 21
838.5771165000001
  0
TEXT
  8
_0-1_LAYER1
 62
    7
 10
1095.843713
 20
1312.3499684999999
 40
35
 41
0.8
 50
0
  1
40x40
  0
CIRCLE
  8
_0-1_LAYER1
  6
CONTINUOUS
 62
    1
 10
1188
 20
520.5771165000001
 40
10
  0
LINE
  8
_0-1_LAYER1
  6
DASHED3
 62
    1
 10
1299.8384000000001
 20
464.65778250000017
 11
1188
 21
520.5771165000001
  0
LINE
  8
_0-1_LAYER1
  6
DASHED3
 62
    1
 10
1076.1616000000001
 20
464.65778250000017
 11
1188
 21
520.5771165000001
  0
TEXT
  8
_0-1_LAYER1
 62
    7
 10
553.52844700000003
 20
2175.5771164999996
 40
70
 41
0.8
 50
0
  1
　　　　　三角冠　青空６０型+平板瓦　Ｓ＝1/1
  0
LINE
  8
_0-1_LAYER1
  6
CONTINUOUS
 62
    1
 10
129
 20
2050.5771164999996
 11
129
 21
813.39180450000003
  0
LINE
  8
_0-1_LAYER1
  6
CONTINUOUS
 62
    1
 10
2247
 20
2050.5771164999996
 11
2247
 21
813.39180450000003
  0
LINE
  8
_0-1_LAYER1
  6
CONTINUOUS
 62
    1
 10
129
 20
2050.5771164999996
 11
2247
 21
2050.5771164999996
  0
TEXT
  8
_0-1_LAYER1
 62
    7
 10
1168.3125
 20
2055.5771164999996
 40
35
 41
0.8
 50
0
  1
210
  0
LINE
  8
_0-1_LAYER1
  6
CONTINUOUS
 62
    1
 10
2384.666667
 20
1328.5771164999999
 11
1482.827716
 21
1328.5771164999999
  0
LINE
  8
_0-1_LAYER1
  6
CONTINUOUS
 62
    1
 10
2384.666667
 20
1123.5771164999999
 11
2384.666667
 21
1328.5771164999999
  0
TEXT
  8
_0-1_LAYER1
 62
    7
 10
2379.666667
 20
1199.8271164999999
 40
35
 41
0.8
 50
90
  1
22.5
  0
LINE
  8
_0-1_LAYER1
  6
CONTINUOUS
 62
    1
 10
1355
 20
1119.5771164999999
 11
1305
 21
1119.5771164999999
  0
LINE
  8
_0-1_LAYER1
  6
CONTINUOUS
 62
    1
 10
1355
 20
927.5771165000001
 11
1305
 21
927.5771165000001
  0
LINE
  8
_0-1_LAYER1
  6
CONTINUOUS
 62
    1
 10
1355
 20
1119.5771164999999
 11
1355
 21
927.5771165000001
  0
TEXT
  8
_0-1_LAYER1
 62
    7
 10
1350
 20
1010.4521165000001
 40
35
 41
0.8
 50
90
  1
20
  0
LINE
  8
_0-1_LAYER1
  6
CONTINUOUS
 62
    1
 10
855
 20
414.45043050000004
 11
905
 21
414.45043050000004
  0
LINE
  8
_0-1_LAYER1
  6
CONTINUOUS
 62
    1
 10
855
 20
616.45043050000004
 11
905
 21
616.45043050000004
  0
LINE
  8
_0-1_LAYER1
  6
CONTINUOUS
 62
    1
 10
855
 20
414.45043050000004
 11
855
 21
616.45043050000004
  0
TEXT
  8
_0-1_LAYER1
 62
    7
 10
850
 20
502.32543050000004
 40
35
 41
0.8
 50
90
  1
20
  0
LINE
  8
_0-1_LAYER1
  6
CONTINUOUS
 62
    1
 10
954
 20
685.5771165000001
 11
1076.5
 21
685.5771165000001
  0
TEXT
  8
_0-1_LAYER1
 62
    7
 10
982.4375
 20
690.5771165000001
 40
35
 41
0.8
 50
0
  1
11.85
  0
LINE
  8
_0-1_LAYER1
  6
CONTINUOUS
 62
    1
 10
1299.5
 20
685.5771165000001
 11
1422
 21
685.5771165000001
  0
TEXT
  8
_0-1_LAYER1
 62
    7
 10
1327.9375
 20
690.5771165000001
 40
35
 41
0.8
 50
0
  1
11.85
  0
LINE
  8
_0-1_LAYER1
  6
CONTINUOUS
 62
    1
 10
1076.5
 20
685.5771165000001
 11
1299.5
 21
685.5771165000001
  0
TEXT
  8
_0-1_LAYER1
 62
    7
 10
1161.75
 20
690.5771165000001
 40
35
 41
0.8
 50
0
  1
22.3
  0
TEXT
  8
_0-1_LAYER1
 62
    7
 10
1135.1124970000001
 20
811.95451750000007
 40
35
 41
0.8
 50
0
  1
青空60型
  0
TEXT
  8
_0-1_LAYER1
 62
    7
 10
1479.8886830000001
 20
1524.9335465000001
 40
35
 41
0.8
 50
0
  1
三角冠
  0
TEXT
  8
_0-1_LAYER1
 62
    7
 10
2216.4241609999999
 20
344.48751349999998
 40
35
 41
0.8
 50
0
  1
平板瓦
  0
LINE
  8
_0-1_LAYER1
  6
CONTINUOUS
 62
    3
 10
1020
 20
1123.5771164999999
 11
966
 21
1123.5771164999999
  0
LINE
  8
_0-1_LAYER1
  6
CONTINUOUS
 62
    3
 10
1022.727864
 20
1116.6515805000001
 11
956.54427200000009
 21
1058.5771164999999
  0
ARC
  8
_0-1_LAYER1
  6
CONTINUOUS
 62
    3
 10
1020
 20
1119.5771164999999
 40
4
 50
312.99746699999997
 51
90
  0
LINE
  8
_0-1_LAYER1
  6
CONTINUOUS
 62
    3
 10
1025.4557280000001
 20
1113.7260455000003
 11
959.27213600000005
 21
1055.6515805000001
  0
ARC
  8
_0-1_LAYER1
  6
CONTINUOUS
 62
    3
 10
1020
 20
1119.5771164999999
 40
8
 50
312.99746699999997
 51
90
  0
LINE
  8
_0-1_LAYER1
  6
CONTINUOUS
 62
    3
 10
1013.554895
 20
1127.5771164999999
 11
966
 21
1127.5771164999999
  0
LINE
  8
_0-1_LAYER1
  6
CONTINUOUS
 62
    3
 10
1350.5442720000001
 20
1113.7260455000003
 11
1416.6382310000001
 21
1055.7302314999999
  0
ARC
  8
_0-1_LAYER1
  6
CONTINUOUS
 62
    3
 10
1414
 20
1052.7236165000002
 40
4
 50
0
 51
48.733848999999999
  0
ARC
  8
_0-1_LAYER1
  6
CONTINUOUS
 62
    3
 10
1356
 20
1119.5771164999999
 40
8
 50
90
 51
227.002533
  0
LINE
  8
_0-1_LAYER1
  6
CONTINUOUS
 62
    3
 10
1353.272136
 20
1116.6515805000001
 11
1419.276462
 21
1058.7344184999999
  0
ARC
  8
_0-1_LAYER1
  6
CONTINUOUS
 62
    3
 10
1414
 20
1052.7211865000002
 40
8
 50
0
 51
48.733848999999999
  0
ARC
  8
_0-1_LAYER1
  6
CONTINUOUS
 62
    3
 10
1356
 20
1119.5771164999999
 40
4
 50
90
 51
227.002533
  0
ARC
  8
_0-1_LAYER1
  6
CONTINUOUS
 62
    3
 10
1414
 20
1052.7260455000003
 40
4
 50
0
 51
47.002533
  0
ARC
  8
_0-1_LAYER1
  6
CONTINUOUS
 62
    3
 10
1414
 20
1052.7260455000003
 40
8
 50
0
 51
47.002533
  0
LINE
  8
_0-1_LAYER1
  6
CONTINUOUS
 62
    3
 10
1356
 20
1123.5771164999999
 11
1410
 21
1123.5771164999999
  0
ARC
  8
_0-1_LAYER1
  6
CONTINUOUS
 62
    3
 10
1410
 20
1135.5771164999999
 40
12
 50
270
 51
0
  0
LINE
  8
_0-1_LAYER1
  6
CONTINUOUS
 62
    3
 10
606.23560300000008
 20
222.59443250000004
 11
1076.1616000000001
 21
464.65778250000017
  0
ARC
  8
_0-1_LAYER1
  6
CONTINUOUS
 62
    3
 10
1072.5
 20
471.77063650000014
 40
8
 50
297.23879499999998
 51
0
  0
LINE
  8
_0-1_LAYER1
  6
CONTINUOUS
 62
    3
 10
625.11826200000007
 20
236.96569550000004
 11
1074.3308
 21
468.21420950000015
  0
ARC
  8
_0-1_LAYER1
  6
CONTINUOUS
 62
    3
 10
1072.5
 20
471.77063650000014
 40
4
 50
297.23879499999998
 51
0
  0
ARC
  8
_0-1_LAYER1
  6
CONTINUOUS
 62
    3
 10
1303.5
 20
471.77063650000014
 40
4
 50
180
 51
242.76120500000002
  0
ARC
  8
_0-1_LAYER1
  6
CONTINUOUS
 62
    3
 10
1303.5
 20
471.77063650000014
 40
8
 50
180
 51
242.76120500000002
  0
ARC
  8
_0-1_LAYER1
  6
CONTINUOUS
 62
    3
 10
1426
 20
414.45043050000004
 40
4
 50
180
 51
242.663444
  0
ARC
  8
_0-1_LAYER1
  6
CONTINUOUS
 62
    3
 10
1426
 20
413.2081975000001
 40
8
 50
180
 51
242.76120500000002
  0
LINE
  8
_0-1_LAYER1
  6
DASHED3
 62
    3
 10
1422
 20
616.45043050000004
 11
1422
 21
414.45043050000004
  0
LINE
  8
_0-1_LAYER1
  6
DASHED3
 62
    3
 10
1418
 20
413.2081975000001
 11
1418
 21
616.45043050000004
  0
LINE
  8
_0-1_LAYER1
  6
CONTINUOUS
 62
    1
 10
1068.1878040000001
 20
199.16252650000001
 11
979.45133499999997
 21
371.53783850000013
  0
LINE
  8
_0-1_LAYER1
  6
CONTINUOUS
 62
    1
 10
712.54513600000007
 20
16.08251150000001
 11
623.80866600000002
 21
188.45782250000002
  0
LINE
  8
_0-1_LAYER1
  6
CONTINUOUS
 62
    1
 10
1068.1878040000001
 20
199.16252650000001
 11
712.54513600000007
 21
16.08251150000001
  0
TEXT
  8
_0-1_LAYER1
 62
    7
 10
876.40844800000013
 20
106.06073950000018
 40
35
 41
0.8
 50
27.238800000000015
  1
40
  0
LINE
  8
_0-1_LAYER1
  6
CONTINUOUS
 62
    1
 10
1348.0188170000001
 20
1159.7838804999999
 11
1348.0188170000001
 21
1109.7838804999999
  0
LINE
  8
_0-1_LAYER1
  6
CONTINUOUS
 62
    1
 10
1027.985692
 20
1159.7838804999999
 11
1027.985692
 21
1109.7838804999999
  0
LINE
  8
_0-1_LAYER1
  6
CONTINUOUS
 62
    1
 10
1348.0188170000001
 20
1159.7838804999999
 11
1027.985692
 21
1159.7838804999999
  0
TEXT
  8
_0-1_LAYER1
 62
    7
 10
1174.877254
 20
1164.7838804999999
 40
35
 41
0.8
 50
0
  1
32
  0
LINE
  8
_0-1_LAYER1
  6
CENTER2
 62
    1
 10
1188
 20
2409.2004754999998
 11
1188
 21
-729.20047549999981
  0
LINE
  8
_0-1_LAYER1
  6
CONTINUOUS
 62
    3
 10
606.23560300000008
 20
222.59443250000004
 11
602.35733100000004
 21
230.12818250000009
  0
LINE
  8
_0-1_LAYER1
  6
CONTINUOUS
 62
    3
 10
1769.7643970000001
 20
222.59443250000004
 11
1773.6426690000001
 21
230.12818250000009
  0
LINE
  8
_0-1_LAYER1
  6
CONTINUOUS
 62
    3
 10
1750.881738
 20
236.96569550000004
 11
1301.6692
 21
468.21420950000015
  0
LINE
  8
_0-1_LAYER1
  6
CONTINUOUS
 62
    3
 10
1769.7643970000001
 20
222.59443250000004
 11
1299.8384000000001
 21
464.65778250000017
  0
LINE
  8
_0-1_LAYER1
  6
CONTINUOUS
 62
    3
 10
1773.6426690000001
 20
230.12818250000009
 11
1424.1631340000001
 21
410.8971325
  0
LINE
  8
_0-1_LAYER1
  6
CONTINUOUS
 62
    3
 10
1771.5952930000001
 20
226.15104550000001
 11
1422.3384000000001
 21
406.09534450000001
  0
LINE
  8
_0-1_LAYER1
  6
CONTINUOUS
 62
    1
 10
962
 20
1967.5771164999999
 11
962
 21
1361.9284075000003
  0
LINE
  8
_0-1_LAYER1
  6
CONTINUOUS
 62
    1
 10
1414
 20
1967.5771164999999
 11
1414
 21
1362.5771164999999
  0
LINE
  8
_0-1_LAYER1
  6
CONTINUOUS
 62
    1
 10
962
 20
1967.5771164999999
 11
1414
 21
1967.5771164999999
  0
TEXT
  8
_0-1_LAYER1
 62
    7
 10
1174.875
 20
1972.5771164999999
 40
35
 41
0.8
 50
0
  1
44
  0
LINE
  8
_0-1_LAYER1
  6
CONTINUOUS
 62
    1
 10
2384.666667
 20
520.5771165000001
 11
1243.541624
 21
520.5771165000001
  0
LINE
  8
_0-1_LAYER1
  6
CONTINUOUS
 62
    1
 10
2384.666667
 20
1123.5771164999999
 11
1482.827716
 21
1123.5771164999999
  0
LINE
  8
_0-1_LAYER1
  6
CONTINUOUS
 62
    1
 10
2384.666667
 20
520.5771165000001
 11
2384.666667
 21
1123.5771164999999
  0
TEXT
  8
_0-1_LAYER1
 62
    7
 10
2379.666667
 20
808.9521165000001
 40
35
 41
0.8
 50
90
  1
60
  0
LINE
  8
_0-1_LAYER1
  6
CONTINUOUS
 62
    1
 10
1608.3027240000001
 20
737.13735250000013
 11
1500.3027240000001
 21
458.13735250000013
  0
LINE
  8
_0-1_LAYER1
  6
CONTINUOUS
 62
    3
 10
551.6972760000001
 20
213.13735250000013
 11
470.6972760000001
 21
374.13735250000013
  0
LINE
  8
_0-1_LAYER1
  6
CONTINUOUS
 62
    3
 10
740.6972760000001
 20
508.13735250000013
 11
820.6972760000001
 21
347.13735250000013
  0
LINE
  8
_0-1_LAYER1
  6
CONTINUOUS
 62
    3
 10
551.6972760000001
 20
213.13735250000013
 11
820.6972760000001
 21
347.13735250000013
  0
LINE
  8
_0-1_LAYER1
  6
CONTINUOUS
 62
    3
 10
470.6972760000001
 20
374.13735250000013
 11
740.6972760000001
 21
508.13735250000013
  0
LINE
  8
_0-1_LAYER1
  6
CONTINUOUS
 62
    1
 10
740.6972760000001
 20
508.13735250000013
 11
551.6972760000001
 21
213.13735250000013
  0
LINE
  8
_0-1_LAYER1
  6
CONTINUOUS
 62
    3
 10
987
 20
1431.5771164999999
 11
988.81972700000006
 21
1533.5608825000002
  0
LINE
  8
_0-1_LAYER1
  6
CONTINUOUS
 62
    3
 10
989.78388700000005
 20
1531.5433605000001
 11
987.12565800000016
 21
1382.5670745
  0
LINE
  8
_0-1_LAYER1
  6
CONTINUOUS
 62
    3
 10
1135.796331
 20
1530.9383355000002
 11
988.81972700000006
 21
1533.5608825000002
  0
LINE
  8
_0-1_LAYER1
  6
CONTINUOUS
 62
    3
 10
1135.7606499999999
 20
1528.9386535000001
 11
989.78388700000005
 21
1531.5433605000001
  0
LINE
  8
_0-1_LAYER1
  6
CONTINUOUS
 62
    3
 10
987
 20
1431.5771164999999
 11
913.78046800000016
 21
1363.8726105000003
  0
LINE
  8
_0-1_LAYER1
  6
CONTINUOUS
 62
    3
 10
807.99513300000012
 20
1264.7440935000002
 11
726.45574600000009
 21
1179.1851764999999
  0
LINE
  8
_0-1_LAYER1
  6
CONTINUOUS
 62
    3
 10
987.98199999999997
 20
1430.5594345000002
 11
914.7803080000001
 21
1363.8547704999999
  0
LINE
  8
_0-1_LAYER1
  6
CONTINUOUS
 62
    3
 10
806.97745200000008
 20
1263.7620924999999
 11
728.4554270000001
 21
1179.1494955000001
  0
LINE
  8
_0-1_LAYER1
  6
DASHED3
 62
    3
 10
807.99513300000012
 20
1264.7440935000002
 11
913.78046800000016
 21
1363.8726105000003
  0
LINE
  8
_0-1_LAYER1
  6
DASHED3
 62
    3
 10
914.7803080000001
 20
1363.8547704999999
 11
806.97745200000008
 21
1263.7620924999999
  0
LINE
  8
_0-1_LAYER1
  6
CONTINUOUS
 62
    3
 10
728.4554270000001
 20
1179.1494955000001
 11
771.41367800000012
 21
1120.3737455000003
  0
LINE
  8
_0-1_LAYER1
  6
CONTINUOUS
 62
    3
 10
726.45574600000009
 20
1179.1851764999999
 11
769.413996
 21
1120.4094265000001
  0
LINE
  8
_0-1_LAYER1
  6
CONTINUOUS
 62
    3
 10
406.5477820000001
 20
794.83130950000009
 11
420.77748000000008
 21
807.57947450000006
  0
LINE
  8
_0-1_LAYER1
  6
CONTINUOUS
 62
    3
 10
405.54794100000004
 20
794.84915050000018
 11
771.41367800000012
 21
1120.3737455000003
  0
LINE
  8
_0-1_LAYER1
  6
CONTINUOUS
 62
    3
 10
769.413996
 20
1120.4094265000001
 11
405.56578100000002
 21
795.84899050000013
  0
LINE
  8
_0-1_LAYER1
  6
CONTINUOUS
 62
    3
 10
420.81316000000004
 20
809.57915550000007
 11
405.56578100000002
 21
795.84899050000013
  0
LINE
  8
_0-1_LAYER1
  6
CONTINUOUS
 62
    3
 10
332.67133100000001
 20
890.63036650000004
 11
405.56578100000002
 21
795.84899050000013
  0
LINE
  8
_0-1_LAYER1
  6
CONTINUOUS
 62
    3
 10
407.28160400000002
 20
957.01395150000008
 11
479.78515500000003
 21
863.53565550000008
  0
LINE
  8
_0-1_LAYER1
  6
CONTINUOUS
 62
    3
 10
743.6972760000001
 20
728.13735250000013
 11
565.38034900000002
 21
938.40702350000015
  0
LINE
  8
_0-1_LAYER1
  6
CONTINUOUS
 62
    3
 10
767.6972760000001
 20
737.13735250000013
 11
875.6972760000001
 21
458.13735250000013
  0
LINE
  8
_0-1_LAYER1
  6
CONTINUOUS
 62
    3
 10
746.6972760000001
 20
514.13735250000013
 11
-90.048522000000048
 21
176.60543150000012
  0
LINE
  8
_0-1_LAYER1
  6
CONTINUOUS
 62
    1
 10
714.6972760000001
 20
878.13735250000013
 11
766.6972760000001
 21
737.13735250000013
  0
LINE
  8
_0-1_LAYER1
  6
CONTINUOUS
 62
    3
 10
746.6972760000001
 20
514.13735250000013
 11
783.6972760000001
 21
420.13735250000013
  0
LINE
  8
_0-1_LAYER1
  6
CONTINUOUS
 62
    3
 10
783.6972760000001
 20
420.13735250000013
 11
876.6972760000001
 21
458.13735250000013
  0
LINE
  8
_0-1_LAYER1
  6
CONTINUOUS
 62
    1
 10
-90.048522000000048
 20
542.58470650000004
 11
641.6972760000001
 21
837.13735250000013
  0
LINE
  8
_0-1_LAYER1
  6
CONTINUOUS
 62
    1
 10
714.6972760000001
 20
878.13735250000013
 11
637.6972760000001
 21
847.13735250000013
  0
LINE
  8
_0-1_LAYER1
  6
CONTINUOUS
 62
    1
 10
637.6972760000001
 20
847.13735250000013
 11
641.6972760000001
 21
837.13735250000013
  0
LINE
  8
_0-1_LAYER1
  6
CONTINUOUS
 62
    3
 10
-90.048522000000048
 20
391.78849950000017
 11
766.6972760000001
 21
737.13735250000013
  0
LINE
  8
_0-1_LAYER1
  6
CONTINUOUS
 62
    1
 10
586.80613200000005
 20
695.59962450000012
 11
586.68124900000009
 21
688.60073850000003
  0
LINE
  8
_0-1_LAYER1
  6
CONTINUOUS
 62
    1
 10
499.37319100000002
 20
728.16465149999999
 11
495.30246600000009
 21
724.23664950000011
  0
LINE
  8
_0-1_LAYER1
  6
CONTINUOUS
 62
    1
 10
513.81775000000005
 20
696.90197850000004
 11
513.74638800000002
 21
692.90261450000003
  0
LINE
  8
_0-1_LAYER1
  6
CONTINUOUS
 62
    1
 10
551.29355400000009
 20
723.23758450000014
 11
551.47195800000009
 21
733.23599250000007
  0
LINE
  8
_0-1_LAYER1
  6
CONTINUOUS
 62
    1
 10
606.57024799999999
 20
738.25381250000009
 11
606.49888600000008
 21
734.25444949999996
  0
LINE
  8
_0-1_LAYER1
  6
CONTINUOUS
 62
    1
 10
660.49029100000007
 20
733.29106450000018
 11
664.61453800000004
 21
740.21858850000012
  0
LINE
  8
_0-1_LAYER1
  6
CONTINUOUS
 62
    1
 10
598.25039200000003
 20
720.39940049999996
 11
598.12550900000008
 21
713.40051549999998
  0
LINE
  8
_0-1_LAYER1
  6
CONTINUOUS
 62
    1
 10
525.26201100000003
 20
721.70175450000011
 11
525.19064900000001
 21
717.70239149999998
  0
LINE
  8
_0-1_LAYER1
  6
CONTINUOUS
 62
    1
 10
653.97387300000003
 20
704.40272249999998
 11
653.93819200000007
 21
702.40304050000009
  0
LINE
  8
_0-1_LAYER1
  6
CONTINUOUS
 62
    1
 10
538.51048300000002
 20
679.45867250000015
 11
548.50889200000006
 21
679.28026750000004
  0
LINE
  8
_0-1_LAYER1
  6
CONTINUOUS
 62
    1
 10
588.73290100000008
 20
803.58243650000009
 11
588.85778400000004
 21
810.58132250000017
  0
LINE
  8
_0-1_LAYER1
  6
CONTINUOUS
 62
    1
 10
440.91702000000009
 20
815.22139149999998
 11
446.75550100000009
 21
806.11578150000014
  0
LINE
  8
_0-1_LAYER1
  6
CONTINUOUS
 62
    1
 10
500.1938530000001
 20
774.15733050000017
 11
496.265851
 21
778.22805549999998
  0
LINE
  8
_0-1_LAYER1
  6
CONTINUOUS
 62
    1
 10
515.74451900000008
 20
804.88478950000012
 11
515.8158810000001
 21
808.88415350000014
  0
LINE
  8
_0-1_LAYER1
  6
CONTINUOUS
 62
    1
 10
552.2569380000001
 20
777.22898950000013
 11
552.0785340000001
 21
767.23058149999997
  0
LINE
  8
_0-1_LAYER1
  6
CONTINUOUS
 62
    1
 10
606.96273800000006
 20
760.25031150000018
 11
607.03409900000008
 21
764.24967450000008
  0
LINE
  8
_0-1_LAYER1
  6
CONTINUOUS
 62
    1
 10
661.02550500000007
 20
763.28628950000007
 11
664.89998500000002
 21
756.21604249999996
  0
LINE
  8
_0-1_LAYER1
  6
CONTINUOUS
 62
    1
 10
466.43041500000004
 20
843.77076450000004
 11
470.28705400000001
 21
835.7006765000001
  0
LINE
  8
_0-1_LAYER1
  6
CONTINUOUS
 62
    1
 10
558.89746500000001
 20
869.12514550000014
 11
562.71842400000003
 21
859.05537550000008
  0
LINE
  8
_0-1_LAYER1
  6
CONTINUOUS
 62
    1
 10
624.77991800000007
 20
861.94863050000004
 11
624.61935400000004
 21
852.95006250000006
  0
LINE
  8
_0-1_LAYER1
  6
CONTINUOUS
 62
    1
 10
644.99159600000007
 20
817.5809835
 11
647.16968200000008
 21
827.54371050000009
  0
LINE
  8
_0-1_LAYER1
  6
CONTINUOUS
 62
    1
 10
600.17716200000007
 20
828.38221250000015
 11
600.30204500000002
 21
835.38109850000001
  0
LINE
  8
_0-1_LAYER1
  6
CONTINUOUS
 62
    1
 10
453.34328100000005
 20
839.00348650000001
 11
458.19976200000008
 21
830.91555749999998
  0
LINE
  8
_0-1_LAYER1
  6
CONTINUOUS
 62
    1
 10
409.5116230000001
 20
792.77810650000015
 11
415.6177110000001
 21
798.67010849999997
  0
LINE
  8
_0-1_LAYER1
  6
CONTINUOUS
 62
    1
 10
511.63811300000009
 20
798.95710650000001
 11
507.71011200000009
 21
803.02783150000005
  0
LINE
  8
_0-1_LAYER1
  6
CONTINUOUS
 62
    1
 10
527.18878000000007
 20
829.68456549999996
 11
527.26014200000009
 21
833.68392949999998
  0
LINE
  8
_0-1_LAYER1
  6
CONTINUOUS
 62
    1
 10
563.70119900000009
 20
802.02876650000007
 11
563.52279500000009
 21
792.03035750000004
  0
LINE
  8
_0-1_LAYER1
  6
CONTINUOUS
 62
    1
 10
618.40699800000004
 20
785.05008750000002
 11
618.47836000000007
 21
789.04945050000015
  0
LINE
  8
_0-1_LAYER1
  6
CONTINUOUS
 62
    1
 10
672.46976600000005
 20
788.08606550000013
 11
676.344246
 21
781.01581850000002
  0
LINE
  8
_0-1_LAYER1
  6
CONTINUOUS
 62
    1
 10
479.78515500000003
 20
863.53565550000008
 11
481.731315
 21
860.50045250000016
  0
LINE
  8
_0-1_LAYER1
  6
CONTINUOUS
 62
    1
 10
570.34172599999999
 20
893.92492149999998
 11
574.16268400000001
 21
883.85515150000015
  0
LINE
  8
_0-1_LAYER1
  6
CONTINUOUS
 62
    1
 10
516.92199000000005
 20
870.87428550000004
 11
520.92135300000007
 21
870.80292350000013
  0
LINE
  8
_0-1_LAYER1
  6
CONTINUOUS
 62
    1
 10
454.20117400000004
 20
774.97799150000014
 11
457.04013200000009
 21
765.92590250000012
  0
LINE
  8
_0-1_LAYER1
  6
CONTINUOUS
 62
    3
 10
407.61726600000009
 20
796.69030650000013
 11
538
 21
644.5771165000001
  0
LINE
  8
_0-1_LAYER1
  6
DASHED3
 62
    3
 10
954
 20
1335.5771164999999
 11
795
 21
1232.5771164999999
  0
LINE
  8
_0-1_LAYER1
  6
DASHED3
 62
    3
 10
795
 20
1230.5771164999999
 11
954
 21
1333.5771164999999
  0
LINE
  8
_0-1_LAYER1
  6
CONTINUOUS
 62
    3
 10
964
 20
1335.5771164999999
 11
954
 21
1335.5771164999999
  0
LINE
  8
_0-1_LAYER1
  6
CONTINUOUS
 62
    3
 10
954
 20
414.5771165000001
 11
889.50192100000004
 21
414.5771165000001
  0
LINE
  8
_0-1_LAYER1
  6
CONTINUOUS
 62
    3
 10
788
 20
1224.5771164999999
 11
882.50192100000004
 21
420.5771165000001
  0
ARC
  8
_0-1_LAYER1
  6
CONTINUOUS
 62
    3
 10
889.50192100000004
 20
421.5771165000001
 40
7
 50
188.53999999999999
 51
270
  0
ARC
  8
_0-1_LAYER1
  6
CONTINUOUS
 62
    3
 10
795
 20
1225.5771164999999
 40
7
 50
90
 51
188.53
  0
LINE
  8
_0-1_LAYER1
  6
CONTINUOUS
 62
    3
 10
964
 20
1255.5771164999999
 11
964
 21
1335.5771164999999
  0
LINE
  8
_0-1_LAYER1
  6
CONTINUOUS
 62
    3
 10
954
 20
416.5771165000001
 11
889.50192100000004
 21
416.5771165000001
  0
LINE
  8
_0-1_LAYER1
  6
CONTINUOUS
 62
    3
 10
790
 20
1224.5771164999999
 11
884.50192100000004
 21
420.5771165000001
  0
ARC
  8
_0-1_LAYER1
  6
CONTINUOUS
 62
    3
 10
889.50192100000004
 20
421.5771165000001
 40
5
 50
188.56999999999999
 51
270
  0
LINE
  8
_0-1_LAYER1
  6
CONTINUOUS
 62
    3
 10
962
 20
1333.5771164999999
 11
954
 21
1333.5771164999999
  0
ARC
  8
_0-1_LAYER1
  6
CONTINUOUS
 62
    3
 10
795
 20
1225.5771164999999
 40
5
 50
90
 51
188.56999999999999
  0
LINE
  8
_0-1_LAYER1
  6
CONTINUOUS
 62
    3
 10
962
 20
1333.5771164999999
 11
962
 21
1255.5771164999999
  0
LINE
  8
_0-1_LAYER1
  6
CONTINUOUS
 62
    3
 10
332.67133100000001
 20
890.63036650000004
 11
407.28160400000002
 21
957.01395150000008
  0
LINE
  8
_0-1_LAYER1
  6
CONTINUOUS
 62
    3
 10
1969.2548500000003
 20
957.70559750000007
 11
2043.784721
 21
891.22334950000004
  0
ENDSEC
  0
EOF
